Song name
# A B C D E F G H I J K L M N O P Q R S T U V W X Y Z

Vehemence - Devour The Rotten Flesh tab

-----------------------------------------------|
-----------------------------------------------|
-----------------------------------------------|
-----------------------------------------------|
---7---2---7---6--1---6--7--2--7---6--1--6-----|
---7---2---7---6--1---6--7--2--7---6--1--6-----|

the rythym is easy to figure out, i just want more Vehemence on this site
so i figured i might as well give it a shot, since my other tabs didnt quite make it, i 
it this way, in Drop C, but theres more than likely and easier way to do it, how about 
C standard

-----------------------------------------------|
-----------------------------------------------|
-----------------------------------------------|
-----------------------------------------------|
---1-------1----0-------0----1------1----0-----|
-------1------------0------------1-----------0-|
Tap to rate this tab
 
# A B C D E F G H I J K L M N O P Q R S T U V W X Y Z