Vehemence - Last Fantasy Of Christ tab

B ||-----------------------------|----------------------------|
F#||-----------------------------|----------------------------|
D ||-----------------------------|----------------------------|
A ||---------12-----9------------|---------9-----10-----9-----|
E ||-----10---------------10-----|--12------------------------|
B ||--8----------8-----8------8--|------8-----8------8-----8--|

---------------------------|--------------------------------||
---------------------------|--------------------------------||
---------------------------|--------------------------------||
--------9-----7------------|--------------------------------||
-----7--------------10-----|------9--12------10------9------||
--0--------0-----0------0--|--10---------10------10-----10--||
Tap to rate this tab
 
# A B C D E F G H I J K L M N O P Q R S T U V W X Y Z