Song name
# A B C D E F G H I J K L M N O P Q R S T U V W X Y Z

Vehemence - Alone In Your Presence tab

Band: Vehemence
Song: Alone In Your Presence
Album: Helping The World To See
Label:

Tabbed by: Zman9001@musician.org 9/11/05

Intro
e--------------------------------------------------------------------------|
A--------------------------------------------------------------------------|
G----4-3--4p3----------4p3-4p3-----------4p3-----------4p3-4p3-------1h3~--|
D-------------4--4h6-6---------4-4h6-6/8-----4--4h6--6---------4-4h6-------|
B--------------------------------------------------------------------------|
E--------------------------------------------------------------------------|

e--------------------------------------------------------------------------|
A--------------------------------------------------------------------------|
G----4p3--4p3----------4p3-4p3---------------------------------------------|
D-------------4--4h6-6---------4-4h6-6/8~----------------------------------|
B--------------------------------------------------------------------------|
E--------------------------------------------------------------------------|

Rhythm (Listen to get strum pattern)
e--------------------------------------------------------------------------|
A--------------------------------------------------------------------------|
G--------------------------------------------------------------------------|
D-9-2-6-2------------------------------------------------------------------|
B-9-2-6-2------------------------------------------------------------------|
E-7-0-4-0------------------------------------------------------------------|

e--------------------------------------------------------------------------|
A--------------------------------------------------------------------------|
G--------99----------------------------------------------------------------|
D99------99-99-------------------------------------------------------------|
B99-1111-77-99-------------------------------------------------------------|
E77-9-9-----77-------------------------------------------------------------|

Best Part
e--------------------------------------------------------------------------|
A--------------------------------------------------------------------------|
G--------------------------------------------------------------------------|
D-9~-12~-10~-14~--12-11-9-12~-10~-14~--19911991-9~-------------------------|
B-9~-12~-10~-14~--12-11-9-12~-10~-14~--19911991-9~-------------------------|
E-7~-10~-9~--12~--10-9--7-10~-9~--12~--97799779-7~-------------------------|

Does not conform to time or strum patterns
and alot of it is probably wrong but it sounds
really good and its the only tab for this song around (that I know of)
Tap to rate this tab
# A B C D E F G H I J K L M N O P Q R S T U V W X Y Z