Guitaretab - guitar tabs
Song name
# A B C D E F G H I J K L M N O P Q R S T U V W X Y Z

Vehemence - To The Taste tab

Artist : Vehemence
Song   : To The Taste
Album  : Helping The World to See
Tuning : B E A D F# B


Intro and Chorus

|----------------------------------------------------------------------|
|-o--------------------------------------------------------------------|
|----------------------------------------------------------------------|
|----------------------------------------------4-----6----6666666666---|
|-o-2-------------2--------------2-------------2-----4-----------------|
|---0-0-0-000000--0--0-0-0000000-0-0-0-0000000---0-0-------------------|

|----------------------------------------------------------------------|
|--------------------------------------------------------------------o-|
|----------------------------------------------------------------------|
|----------------------------------------------4-----5----5555555555---|
|---2-------------2--------------2-------------2-----3---------------o-|
|---0-0-0-000000--0--0-0-000-000-0-0-0-0000000---0-0-------------------|

Verse

|----------------------------------------------|
|-o------------------------------------------o-|
|----------------------------------------------|
|---------------------7-7-7-7------------------|
|-o-222-2-2--222-2-2--5-5-5-5-8-8-8-8--------o-|
|---000-0-0--000-0-0----------6-6-6-6----------|

Chorus

|----------------------------------------------------------------------|
|-o--------------------------------------------------------------------|
|----------------------------------------------------------------------|
|----------------------------------------------4-----6----6666666666---|
|-o-2-------------2--------------2-------------2-----4-----------------|
|---0-0-0-000000--0--0-0-0000000-0-0-0-0000000---0-0-------------------|

|----------------------------------------------------------------------|
|--------------------------------------------------------------------o-|
|----------------------------------------------------------------------|
|----------------------------------------------4-----5----5555555555---|
|---2-------------2--------------2-------------2-----3---------------o-|
|---0-0-0-000000--0--0-0-000-000-0-0-0-0000000---0-0-------------------|

Verse 2

|----------------------------------------------|
|-o------------------------------------------o-|
|----------------------------------------------|
|---------------------7-7-7-7------------------|
|-o-222-2-2--222-2-2--5-5-5-5-8-8-8-8--------o-|
|---000-0-0--000-0-0----------6-6-6-6----------|

|----------------------------------------------|
|-o------------------------------------------o-|
|----------------------------------------------|
|----------------------------------------------|
|-o-------------------5555555----------------o-|
|---0000000000000000----------6666666----------|

Bridge
[ Tab from: http://www.guitaretab.com/v/vehemence/97275.html ]
|--------------------------------|
|-o------------------------------|
|--------------------------------|
|---2-2--2--2~---2-2--2--3/4-4---|
|-o-2-2--2--2~---2-2--2--1/2-2---|
|---0-0--0--0~---0-0--0----------|

|---------------------------|
|---------------------------|
|---------------------------|
|-2-2--2--2~---2-2--2--5~---|
|-2-2--2--2~---2-2--2--3~---|
|-0-0--0--0~---0-0--0-------|

|-------------------------------|
|-------------------------------|
|-------------------------------|
|---2-2--2--2~---2-2--2--3/4-4--|
|---2-2--2--2~---2-2--2--1/2-2--|
|---0-0--0--0~---0-0--0---------|

|------------------------------|
|----------------------------o-|
|------------------------------|
|--2-2--2--2~---2-2--2--5/6~---|
|--2-2--2--2~---2-2--2--3/5~-o-|
|--0-0--0--0~---0-0--0---------|

|-----------------------------------------|
|-o---------------------------------------|
|-----------------------------------------|
|------------------555555577777779999999--|
|-o---------------------------------------|
|---000000000000000-----------------------|

|-----------------------------------------|
|---------------------------------------o-|
|-----------------------------------------|
|-----------------------------------------|
|-------------------5555555577777777----o-|
|---000000000000000-----------------------|

Chorus

|----------------------------------------------------------------------|
|-o--------------------------------------------------------------------|
|----------------------------------------------------------------------|
|----------------------------------------------4-----6----6666666666---|
|-o-2-------------2--------------2-------------2-----4-----------------|
|---0-0-0-000000--0--0-0-0000000-0-0-0-0000000---0-0-------------------|

|----------------------------------------------------------------------|
|--------------------------------------------------------------------o-|
|----------------------------------------------------------------------|
|----------------------------------------------4-----5----5555555555---|
|---2-------------2--------------2-------------2-----3---------------o-|
|---0-0-0-000000--0--0-0-000-000-0-0-0-0000000---0-0-------------------|

Verse 3

|----------------------------------------------|
|-o------------------------------------------o-|
|----------------------------------------------|
|---------------------7-7-7-7------------------|
|-o-222-2-2--222-2-2--5-5-5-5-8-8-8-8--------o-|
|---000-0-0--000-0-0----------6-6-6-6----------|

|----------------------------------------------|
|-o------------------------------------------o-|
|----------------------------------------------|
|----------------------------------------------|
|-o-------------------5555555----------------o-|
|---0000000000000000----------6666666----------|

|--------------------|
|--------------------|
|--------------------|
|--------------------|
|---2-------------2--|
|---0-0-0-000000--0--|

Thatís it just listen to the song for the exact timing and amount of times to play each part



Related for To The Taste tab