Song name
# A B C D E F G H I J K L M N O P Q R S T U V W X Y Z

Veil Of Maya - The Uprising tab

Veil of Maya- The Uprising

album: All Things Set Aside

tune to dropped b (b, f sharp, b, e, g sharp, c sharp)

Intro

-------------------------------------------|
11--11-11---11--11-11----------------------|
14--14-14---14--14-14--15-15-15/14-14-14---|
12--12-12---12--12-12--12-12-12~---12-12---|
13--13-13---13--13-13--10-10-10~---10-10---|
-------------------------------------------|

---------------------------------------------|
-8---8--8----------11-11/9---9--9------------|
11--11-11---12/15--14-14/12-12-12------------|
-9---9--9---10/13--12-12/10-10-10------------|
10--10-10----8/11--13-13/11-11-11------------|
---------------------------------------------|
Tap to rate this tab
# A B C D E F G H I J K L M N O P Q R S T U V W X Y Z