Song name
# A B C D E F G H I J K L M N O P Q R S T U V W X Y Z

Veil Of Maya - Mowgli tab

Veil of Maya - Mowgli
Tabbed by Anthony D (AlucardXIX)

Video of me playing this: http://www.youtube.com/watch?v=ALJhpuKCP1E

The intro part is not correct, it's close but not correct. This should give you a
rough idea of how to play it though.
I've also changed a few things since my video to make it more correct.

^= bend
T= tap

Intro. Repeats these parts.
------------------------------------------------10------------------------------|
------------------------------------------------10----------------13-13-13------|
-7/14-------------15-12-12-14^----12-11--------------------8-8-8--12-12-12------|
-5/12-------------12-12-12-12^-----------------------------5-5-5--13-13-13------|
-6/13--0-00-00-0--13-13-13-13^-0--10-9---0-10-12---0-000---6-6-6----------------|
-------0-00-00-0---------------0--0--0-------------0-000------------------------|

----------15------------------------------------------------------------|
------------15-------------------15-15------------13-13-13-13-13-13-----|
-7-7-7--------15----------14^----12-12----15-15---12-12-12-12-12-12-----|
-5-5-5-0---------13-12-13--------13-13----12-12---13-13-13-13-13-13-----|
-6-6-6-0----------------------------------------------------------------|
-0-0-0-0----------------------00-------00-------00----------------------|

----------------------------------------|
----------------------------------------|
-5-7--12-14----15----14-12-14-14-14-14--|
-5-5--12-12----12----12-12-12-12-12-12--|
-6-6--13-13----13----13-13-13-13-13-13--|
------------00----00--------------------|

This part repeats twice on the last time through
-----------------------------------------|---------------|
------------------------15-15------------|--15^----------|
-12-14-15-15----7-7--------------14-14---|--------14\----|
-12-12-12-12----5-5-----12-12----12-12---|--12^----------| This part leads into the
-13-13-13-13----6-6--------------13-13---|--------12\----| verse and ends the song.
-------------00------00-------00---------|------0--------|

Verse
--------------------------------------------------------------|
--------------------------------------------------------------|
--------------------------------------------------------------|
----------------------------------------4-7-12T-7-4-0-5-------|
--------------------------------------------------------------|
-8--0-1-00-4-5-00-0-1-4-00-7-8-00-1-4-5-----------------------|

------------------------------------------|
------------------------------------------|
------------------------------------------|
------------------------------------------|
------------------6-5---------------------|
-0-00000-8--00000-----7\---5-7-8-12T-8-7--|


Breakdown. Repeats twice
-----------------------------------------------------------------------------------|
-----------------------------------------------------------------------------------|
-----------------------------------------------------------------------------------|
-----------------------------------------------------------------------------------|
-55-555-555-5-5-55-55-55-55-5-5-5-5-55-5-55-555-555-5-5-55-55-55-55-5-5-5-5-55-5---|
-55-555-555-5-5-55-55-55-55-5-5-5-5-55-5-55-555-555-5-5-55-55-55-55-5-5-5-5-55-5---|

----------------------------------------------------|
----------------------------------------------------|
----------------------------------------------------|
----------------------------------------------------|
-55-555-555-5-5-55-55-55-55-5-5-5-5-55-5-55-555-5---|
-55-555-555-5-5-55-55-55-55-5-5-5-5-55-5-55-555-5---|

------------------------------------------------------------------------|
------------------------------------------------------------------------|
-----------------------------------------------------------------5-7----|
-----------------------------------------5-7--------5-7-8-7-------------|
----------------------------------5-6-----------------------------------|
-1-1-1--1-1--1-1-1-1---1-1--1-1-1-----1-1----1-1-1-1----------1-1-------|


Bridge Repeat twice
-----------------------------------------------6-10-11T-10-6---------|
----------------------------------------------8-------------8--------|
---------------------------------------------7---------------7-------|
-----8-----7----------------10-----7--------8-----------------8------|
---------------9----10----------------5/6-10-------------------10-6--|
-555---555--55---55----5555----555-----------------------------------|

----------------------------------------|
----------------------------------------|
----------------------------------------|
---------4-7-4--------------------------|
-5---6----------------------------------|
--000-000-------------------------------|

-----------------------------------------------6-10-15T-10-6---------|
----------------------------------------------8-------------8--------|
---------------------------------------------7---------------7-------|
-----8-----7----------------10-----7--------8-----------------8------|
---------------9----10----------------5/6-10-------------------10-6--|
-555---555--55---55----5555----555-----------------------------------|

----------------------------------------|
----------------------------------------|
----------------------------------------|
---------4-7-4--------------------------|
-5---6----------------------------------|
--000-000-------------------------------|

Back to intro riffs, end the song!
Tap to rate this tab
# A B C D E F G H I J K L M N O P Q R S T U V W X Y Z