Song name
# A B C D E F G H I J K L M N O P Q R S T U V W X Y Z

Veil Of Maya - Conquer tab

Veil of Maya - Conquer
Tabbed by: Anthony D (AlucardXIX)

Video of me playing this:
http://www.youtube.com/watch?v=4tQ1EQgVSdM

Not the hardest song, but not the easiest ever. But still really fun to play.

Riff 1
------------------------------------------------------------|
------------------------------------------------------------|
------------------------------------------------------------|
-----------------------12------12----12----10----10---------|
-10-9-10--------10-9-10--10-9----10----10----10----10-------|
--------12-8-12--------------------10----10----10----10-----|

----------------------------------|
----------------------------------|
----------------------------------|
-5--5--0--0---7--7--4--4----------|
--1--1--1--1---5--5--5--5---------|
---1--1--1--1---4--4--4--4--------|


Riff 2 + fill
-------------|----------------------------------------------------|
-------------|----------------------------------------------------|
-------------|-7--7--7--7--8--8--8--8---8--8--8--8--7--7--7--7----|
-------4-5-7-|--5--5--5--5--5--5--5--5---4--4--4--4--4--4--4--4---|
-4-5-6-------|---6--6--6--6--6--6--6--6---5--5--5--5--5--5--5--5--|
-------------|----------------------------------------------------|

Riff 3
----------------------------------------------------------|
-------------15----15----13----13----10----10-------------|
-12----12------12----12----12----12----11----11-----------|
---12----12------12----12----12----12----12----12---------|
-----13----13---------------------------------------------|
----------------------------------------------------------|

----------------------------------------------|
-7--7--8--10--11--10--8--7--------------------|
--7--7--7---7---7---7--7--7-------------------|
---7--7--7---7---7---7--7--7------------------|
----------------------------------------------|
----------------------------------------------|

This might be missing some notes, but it's the general idea.
-------------|----------------------------------------------------|
-------------|----------------------------------------------------|
-------------|----------------------------------------------------|
-------4-5-7-|-8----5--4-----7---8-----5---7-----7--8----5--4-----|
-4-5-6-------|----------------------------------------------------|
-------------|--5-8---8--7-05--5---5-8---8---8-05--5--5-8--8--7---|

                 second time through
-----------------|-----------------------------|
-----------------|-----------------------------|
----------5--2---|-5-2-5-2---------------------|
-5---5-----------|-----------------------------|
-----------------|-----------------------------|
---1---11--1--1--|--1-1-1-1--------------------|

----------------------------------------------|
----------------------------------------------|
------------------------------T---------------|
----12----10-8--7-8-7-5-4--0471274------------|
-12-------------------------------------------|
---8---88---8-8--5-5-5-5-5--------------------|

-------------------------------------------------------------------|
-------------------------------------------------------------------|
------10-8-------------------------------------787-----------------|
-12----------101210-8----7-5----4-5-7-8-7--454-----12----10--8-----|
-------------------------------------------------------------------|
---888--8-8-----------88--5-555--5-5-5-5-5-----------888---8--8----|

Trem pick these notes
----------------------------------------------|
----------------------------------------------|
------7-5-------------------------------------|
--4-5-----8-7-4-------------------------------|
----------------------------------------------|
----------------------------------------------|

----------------------------------------------------|
-------------------------------------15------15-----|
-12------12--12------12--15------15----12--12--12---|
---12--12--12--12--12--12--12--12--12----12---------|
-----15----------15----------15---------------------|
----------------------------------------------------|

------------------------------------------------------|
-------------------------15----13---------------------|
-12------12--12------12----12----12--15----14---------|
---12--12--12--12--12--12----12----12--12----12-------|
-----15----------15----------------------15----15-----|
------------------------------------------------------|

----------------------------------------------------|
----------------------------------------------------|
-7--7--7--7--8--8--8--8---8--8--8--8--7--7--7--7----|
--5--5--5--5--5--5--5--5---4--4--4--4--4--4--4--4---|
---6--6--6--6--6--6--6--6---5--5--5--5--5--5--5--5--|
----------------------------------------------------|

-------------|----------------------------------------------------|
-------------|----------------------------------------------------|
-------------|----------------------------------------------------|
-------4-5-7-|-8----5--4-----7---8-----5---7-----7--8----5--4-----|
-4-5-6-------|----------------------------------------------------|
-------------|--5-8---8--7-05--5---5-8---8---8-05--5--5-8--8--7---|

                 second time through
-----------------|-----------------------------|
-----------------|-----------------------------|
----------5--2---|-5-2-5-2---------------------|
-5---5-----------|-----------------------------|
-----------------|-----------------------------|
---1---11--1--1--|--1-1-1-1--------------------|

last bar
----------------------------------------------|
----------------------------------------------|
----------------------------------------------|
-------4-5-7--8\------------------------------|
-4-5-6--------5\------------------------------|
--------------5\------------------------------|
Tap to rate this tab
 
# A B C D E F G H I J K L M N O P Q R S T U V W X Y Z