Veil Of Maya - The Uprising tab

Ill post up the rest l8r.


----------------------------------------------|
----------------------------------------------|
-14--14-14---14--14-14----15--15\14--14--14---|
--0---0--0----0---0--0-----0---0--0---0---0---|
-12--12-12---12--12-12----13--13\12--12--12---|
--0---0--0----0---0--0----10--10\10--10--10---|

----------------------------------------|
----------------------------------------|
-12--12-12---12\13---14--15--15----12---|
--0---0--0----0--0----0---0---0-----0---|
-10--10-10---10\11---12--13--13-----9---|
--0---0--0----0--0---10--10--10-----0---|
Tap to rate this tab
 
# A B C D E F G H I J K L M N O P Q R S T U V W X Y Z