Song name
# A B C D E F G H I J K L M N O P Q R S T U V W X Y Z

Veil Of Maya - We Bow In Its Aura tab

We Bow In Its Aura
from the album "The Common Man's Collapse"

The first half of this tab is straight from Marc Okubo himself. He explains this song
among others in a two part lesson on GuitarMessenger. Check it out, it's really cool and
there's tons of sweet celebrity guest lessons like Misha Mansoor of Periphery and many 
more. After the part with the whammy dive though, I tabbed myself because no one has posted
a really good version. Enjoy a great song and get to work 'cause this one takes a little 
bit to master :)

Tuning: Drop B (low to high: B-F#-B-E-G#-C#)

|-----------------------------------------------------------------|
|-----------------------------------------------------------------|
|-------------------------------------------------T-------T-------|
|----------8----------------------T---------------20p11p8-19p11p8-|
|-----------12p8-8_-8-888_--------17p12p8-T-----------------------|
|-0--0h3h7-------0_-0-000_-0h8h12---------17p12p8-----------------|
pm*              *  * ***

|----------------------------------------------------|
|----------------------------------------------------|
|----------------------------------------------------|
|---8----8----3---3---------0--------8---8---7---7---|
|---12---12---7---7-------0---0_---------------------|
|-0----0----0---0---0-1-4--------4-5---5---4---4-----|
pm*    *    *   *   * * * *

|-------------------------------|
|-------------------------------|
|-------------------------------|
|-4h5p4-----------5-7---5---4---|
|-------6-5-3-5-6-----6---6---5-|
|-------------------------------|
pm

|-------------------------------------------------------------------|
|-------------------------------------------------------------------|
|---------------------------------------------------T-------T-------|
|-----------8-----------------------T---------------20p11p8-19p11p8-|
|------------12p8-8_-8-888_---------17p12p8-T-----------------------|
|-0-0-0h3h7-------0_-0-000_-12h8h12---------17p12p8-----------------|
pm* *              *  * ***

|----------------------------------------------------|
|----------------------------------------------------|
|----------------------------------------------------|
|---8----8----3---3---------0--------8---8---7---7---|
|---12---12---7---7-------0---0_---------------------|
|-0----0----0---0---0-1-4--------4-5---5---4---4-----|
pm*    *    *   *   * * *

|--------------------------------------------|
|--------------------------------------------|
|--------------------------------7h8p7-5h7p5-|
|-4h5p4-----------5-7---5---4----------------|
|-------6-5-3-5-6-----6---6---5--------------|
|--------------------------------------------|
pm


|---------------------------------------||
|---------------------------------------||
|-5h7p5-----------5h7p5-----------5h7p5-||
|-------5-------5-------5-------5-------||
|---------6-3-6-----------6-3-6---------||
|---------------------------------------|| (repeat)

|---------------------------------------|
|---------------------------------------|
|-7h8p7-----------7h8p7-----------7h8p7-|
|-------7-------7-------7-------7-------|
|---------9-5-9-----------9-5-9---------|
|---------------------------------------|

|----------------------------------------------------------|
|----------------------------------------------------------|
|-11h12p11----------------11h12p11----------------11h12p11-|
|----------12----------12----------12----------12----------|
|-------------13-12-13----------------13-12-13-------------|
|----------------------------------------------------------|

|-11-------10----8---------------------||
|----8----------------12-~----12----13-||
|--------------------------------------||
|------10-----10---10------10----10----||
|--------------------------------------||
|--------------------------------------|| (repeat)
pm     *      *    *       *     *


|-------------------------------------------------------|
|-------------------------------------------------------|
|-------------------------------------------------------|
|-----------4---5---8--7-~---7---8----12-10-~---10---8--|
|-0-5-4-~---5---6---10-9-~---9---10---13-12-~---12---10-|
|-0-5-4-~-0---0---0--------0---0----0---------0----0----|
pm*       *   *   *        *   *    *         *    *

|-----------------|
|-----------------|
|-3/7-7-7-7/8-8-8-|
|-x-x-x-x-x-x-x-x-|
|-1/5-5-5-5/6-6-6-|
|-----------------|

|-11-------10----8------------------------11------10----8--|
|----8----------------12-~----12----13-------8-------------|
|----------------------------------------------------------|
|------10-----10---10------10----10----10------10----10----|
|----------------------------------------------------------|
|----------------------------------------------------------|
pm     *      *    *       *     *     *       *     *

                              T
|---------11h15p11------11h15-20p15p11---|
|-------13--------13--13--------------13-|
|-----12------------12-------------------|
|---13-----------------------------------|
|-15-------------------------------------|
|----------------------------------------|

|-------------------------------------------------------|
|-------------------------------------------------------|
|-------------------------------------------------------|
|-----------4---5---8--7-~---7---8----12-10-~---10---8--|
|-0-5-4-~---5---6---10-9-~---9---10---13-12-~---12---10-|
|-0-5-4-~-0---0---0--------0---0----0---------0----0----|
pm*       *   *   *        *   *    *         *    *

|-----------------|
|-----------------|
|-3/7-7-7-7/8-8-8-|
|-x-x-x-x-x-x-x-x-|
|-1/5-5-5-5/6-6-6-|
|-----------------|

||-------------------------------------------------------|
||-------------------------------------------------------|
||-------------------------------------3h7p3-------------|
||---------4h7p4-------------5h8p5-----------------------|
||-111-111-------111-111-111-------111-------111-111-111-|
||-111-111-------111-111-111-------111-------111-111-111-|
pm *** ***       *** *** ***       ***       *** *** ***

|-----------------------8h10p8-------------------------------|
|------------------------------------------7h10p7-----8h11p8-|
|-----2h5p2--------------------------------------------------|
|------------------------------------------------------------|
|-111-------111-111-111--------111-111-111--------111--------|
|-111-------111-111-111--------111-111-111--------111--------|
pm***       *** *** ***        *** *** ***        ***

|-----------------14h15h17-----||-------------|
|------------------------------||--16-\-\-\-\-|
|------------------------------||--x----------|
|------------------------------||--13-\-\-\-\-| < (whammy dive)
|-111-111-111-111----------111-||-------------|
|-111-111-111-111----------111-||-------------|
pm*** *** *** ***          ***

|-------------------------------------------14h15h17---------|
|--------------------------------------------------------16\-|
|--------------------------------------------------------x---|
|--------------------------------------------------------13\-|
|-111-111---111-111-111---111---111-111-111----------111-----|
|-111-111---111-111-111---111---111-111-111----------111-----|
pm*** ***   *** *** ***   ***   *** *** ***          ***

|-------------------------------------------14h15h17--15h17h18--|
|---------------------------------------------------------------|
|---------------------------------------------------------------|
|---------------------------------------------------------------|
|-111-111---111-111-111---111---111-111-111---------------------|
|-111-111---111-111-111---111---111-111-111---------------------|
pm*** ***   *** *** ***   ***   *** *** ***

|-22-22-22-17-17-17-----------|
|-------------------13-/-16\\-|
|-----------------------------|
|-----------------------------|
|-----------------------------|
|-----------------------------|


||------------------------------------------------|
||------------------------------------------------|
||------------------------------------------------|
||------------------------------------------------|
||-11-11----11-11-11-11---11---11-11-11-11----11--|
||-11-11----11-11-11-11---11---11-11-11-11----11--|
pm ** **    ** ** ** **   **   ** ** ** **    **

|------------------------------------------------||
|------------------------------------------------||
|------------------------------------------------||
|------------------------------------------------||
|-55-55----55-55-55-55---55---55-55-55-55----55--||
|-55-55----55-55-55-55---55---55-55-55-55----55--|| (repeat)
pm** **    ** ** ** **   **   ** ** ** **    **

|------------------------------------------------|
|------------------------------------------------|
|------------------------------------------------|
|------------------------------------------------|
|-11-11----11-11-11-11---11---11-11-11-11----11--|
|-11-11----11-11-11-11---11---11-11-11-11----11--|
pm** **    ** ** ** **   **   ** ** ** **    **

|-------------------|
|-8/10\8-------8/10-|
|--------7---7------|
|----------8--------|
|-------------------|
|-------------------|


|-----------------------------------------|
|-----------------------------------------|
|-----------------------------------------|
|-7/8---4-----7/8---4/------7/8---4/------|
|-5-----1-----5-----1/--0-0-5-----1/--0-0-| (play this part
|-5---0-1---0-5---0-1/--0-0-5---0-1/--0-0-|  five times)
pm    *     *     *     * *     *     * *

|--------------------------------------------------------------------------|
|--------------------------------------------------------------------------|
|--------------------------------------------------------------------------|
|-7/8---8-----12-10-8\-1h5---5-----7--7/8---8-----12-10-8\-1h5---5-----4-0-|
|-5-----5-----8--8--8\-1-----1-----3--5-----5-----8--8--8\-1-----1-----1-0-|
|-5---0-5-0-0-8--8--8\-1---1-1-1-1-3--5---0-5-0-0-8--8--8\-1---1-1-1-1-1-0-|
pm    *   * *              *   * *        *   * *              *   * *

|------------------------------------------|
|------------------------------------------|
|------------------------------------------|
|-7/8---8-----12-10-8\-1h5---5_--------1h5-|
|-5-----5-----8--8--8\-1-----1_------1-----|
|-5---0-5-0-0-8--8--8\-1---1-1_--1h5-------|
pm    *   * *              *

|-------------------------------------------------------------|
|-------------------------------------------------------------|
|-------------7p5---5-----------------------------------------|
|-7/8---8---------------5-------0-----------------0-----7--7--|
|-5-----5-------------------5/9---9---9~-5~---5/9---9---5--3--|
|-5---0-5-0-0-----0---0---0---------0-------0---------0-5--3--|
pm    *   * *     *   *   *         *       *         *


one guitar only:
|--------------------------------------|
|--------------------------------------|
|--------------------------------------|
|--------------------------------------|
|-11111_-1111111_-111_-11111_-1111111_-|
|-11111_-1111111_-111_-11111_-1111111_-|
pm*****  *******  ***  *****  *******

both:
|----------------------------------------|
|----------------------------------------|
|----------------------------------------|
|-111_-11111_-1111111_-111_-11111_-------|
|-111_-11111_-1111111_-111_-11111_-------|
|-111_-11111_-1111111_-111_-11111_-------|
pm***  *****  *******  ***  *****


||-----------------------------------------------------------|
||-----------------------------------------------------------|
||-----------------------------------------------------------|
||-----------------------------------------------------------|
||-----5------5--------5--------5------5------5--------5-----|
||-0--1---0_-1---0_-001---0_-001---0_-1---0_-1---0_-001---0_-|
pm *  *   *  *   *  ***   *  ***   *  *   *  *   *  ***   *

|----------------------------||
|----------------------------||
|----------------------------||
|----------------------------||
|----5------5------5-----000-||
|-001---0_-1---0_-1---0_-000-|| (repeat)
pm***   *  *   *  *   *  ***


|                  (x3)|
|----------------------|-------------|
|----------------------|-------------|
|----------------------|-------------|
|----------------------|-------------|
|-00000_-0000000_-000_-|-00000_-0000-|
|-00000_-0000000_-000_-|-00000_-0000-|
pm*****  *******  ***    *****  ****


|-----------------------------------------------------------|
|-----------------------------------------------------------|
|-----------------------------------------------------------|
|-----------------------------------------------------------|
|-----5------5--------5--------5------5------5--------5-----|
|-0--1---0_-1---0_-001---0_-001---0_-1---0_-1---0_-001---0_-|
pm*  *   *  *   *  ***   *  ***   *  *   *  *   *  ***   *


|----------------------------|
|----------------------------|
|----------------------------|
|----------------------------|
|----5------5------5-----000-|
|-001---0_-1---0_-1---0_-000-|
pm***   *  *   *  *   *  ***


|-----------------------------------------------------------|
|-----------------------------------------------------------|
|-----------------------------------------------------------|
|-----5------5--------5--------5------5------5--------5-----|
|-----5------5--------5--------5------5------5--------5-----|
|-0--1---0_-1---0_-001---0_-001---0_-1---0_-1---0_-001---0_-|
pm*  *   *  *   *  ***   *  ***   *  *   *  *   *  ***   *

|----------------------------|
|----------------------------|
|----------------------------|
|----5------5------5---------|
|----5------5------5-----000-|
|-001---0_-1---0_-1---0_-000-|
pm***   *  *   *  *   *  ***


||---------------------------------------------------|
||---------------------------------------------------|
||-----12------9--------5--------7------5------7-----|
||-----x-------x--------3--------x------3------x-----|
||-----10------7--------3--------5------3------5-----|
||-0--0----0_-0---0_-000---0_-000---0_-0---0_-0---0_-|
pm *  *    *  *   *  ***   *  ***   *  *   *  *   *

|-------------------------------------||
|-------------------------------------||
|-------------------------------------||
|----5--------5------5------5---------||
|----5--------5------5------5-----000-||
|-001---0_-001---0_-1---0_-1---0_-000-|| (repeat)
pm***   *  ***   *  *   *  *   *  ***


||-------------------------------------------||
||-------------------------------------------||
||-------------------------------------------||
||-------------------------------------------||
||-00000_-0000000_-000_-00000_-0000000_-000_-||
||-00000_-0000000_-000_-00000_-0000000_-000_-|| (play seven times)
pm *****  *******  ***  *****  *******  ***

|------|
|------|
|------|
|------|
|-00---|
|-00---|
pm**

Phas-y Outro Part:
|-------------------13----13-16-13-------15-------|
|-13----13-17-13-17----17----------13-14------14--|
|----14-------------------------------------------|
|-------------------------------------------------|
|-------------------------------------------------|
|-------------------------------------------------|
Tap to rate this tab
 
# A B C D E F G H I J K L M N O P Q R S T U V W X Y Z