Vektor - Black Future tab

OK, so I found out that they tune in F, after tabbing this out, if you're 
desperate to play it the way vektor do, just tune to F and play every note a fret down!

    e|---------------------------------|
    B|---------------------------------|
GTR G|-----------------------------5/6-|    
1+2 D|-3-3--333-3-333-3-333-3-333--3/4-|  x4            
    A|-3-3--333-3-333-3-333-3-333------|
    E|-1-1--111-1-111-1-111-1-111------|

    e|----- X3 ------|-----------------|
    B|---------------|-----------------|
GTR G|-5-6---5---6P5-|-6-5-------------| x2    
 1  D|-----4---4-----|-----7-6---------|              
    A|---------------|---------------4-|
    E|---------------|---------4-2-3---|
                               P M P M

    e|----------------------------------------|
    B|----------------------------------------|
GTR G|-10------------13--------------10-------|    
 2  D|-10------------13--------------10-------|              
    A|-8-------------11--------------8--------|
    E|----------------------------------------|

    e|----------------------------------------|
    B|----------------------------------------|
GTR G|----------------------------------------|    
1+2 D|-3--3--3--3--3--3--4-3-5-6--------------|              
    A|-3--3--3--3--3--3--4-3-5-6--------------|
    E|-1--1--1--1--1--1--2-1-3-4--------------|

    e|---- x3 ----|------------|
    B|------------|------------|
GTR G|------------|----------6-|    
 1  D|-6--4--5--3-|-6--4--5--6-|              
    A|-6--4--5--3-|-6--4--5--4-|
    E|-4--2--3--1-|-4--2--3----|
       P  M  P  M   P  M  PM

    e|---- x3 ----|------------|
    B|------------|------------|
GTR G|-13-11-12-10|----------6-|    
 2  D|-13-11-12-10|-6--4--5--6-|              
    A|-11-9--10-8-|-6--4--5--4-|
    E|------------|-4--2--3----|
                    P  M  PM

    e|---- x3 ----|------------|
    B|------------|------------|
GTR G|------------|----------6-|    
 1  D|-6--4--5--3-|-6--4--5--6-|              
    A|-6--4--5--3-|-6--4--5--4-|
    E|-4--2--3--1-|-4--2--3----|
       P  M  P  M   P  M  PM

    e|-------------------------|
    B|-------------------------|
GTR G|-------------------------|    
 2  D|-6-----------------------|              
    A|-6-----------------------|
    E|-4-----------------------|


    e|----- x3 ------|-----------|
    B|---------------|-----------|
GTR G|------------9--|-12-----12-|    
 1  D|-9--12--11--9--|-12-----12-| x2              
    A|-9--12--11--7--|-10-----10-|
    E|-7--10--9------|----x-x----|
       P  M   P   M

    e|----------------|
    B|----------------|
GTR G|----------------|    
1+2 D|-11---------12--| x4              
    A|-9---9--12--10--|
    E|-----7--10------|

    e|----------------|
    B|----------------|
GTR G|----------------|    
1+2 D|-13----------14-| x4              
    A|-11--11--14--12-|
    E|-----9---12-----|


    e|----------------|
    B|----------------|
GTR G|----------------|    
1+2 D|-15----------16-| x4              
    A|-13--13--16--14-|
    E|-----11--14-----|


    e|---------------------------------------------------|
GTR B|-8888-9-9-9-9--10101010-11111111-10101010-11111111-|    
1+2 G|-9999-10101010-11111111-12121212-11111111-12121212-|              
    D|---------------------------------------------------|
    A|-8888-9-9-9-9--10101010-11111111-10101010-11111111-|
    E|---------------------------------------------------|

    e|-------------------------------------|
GTR B|-14141414-13131313-17171717-16161616-|    
1+2 G|-15151515-14141414-18181818-17171717-|              
    D|-------------------------------------|
    A|-14141414-13131313-17171717-16161616-|
    E|-------------------------------------|

    e|---------------------------------------------------|
GTR B|-9-9-9-9--11111111-151515-15-15-15-151515-15-15-15-|    
1+2 G|-10101010-12121212-161616-16-16-16-161616-16-16-16-|              
    D|---------------------------------------------------|
    A|-9-9-9-9--11111111-151515-15-15-15-151515-15-15-15-|
    E|---------------------------------------------------|

----------------------------------------------------------------------------

    e|------------------------------------------------|
    B|--------1h2--------6h7p6------4-4-4-4-4-4-7-7-7-|
GTR G|------------------------------1-1-1-1-1-1-4-4-4-| 1,3    
1+2 D|------------------------------------------------|              
    A|-333333-----444444-------3333-------------------|
    E|-111111-----222222-------1111-------------------|
       PMPMPM     PMPMPM       PMPM

    e|-------------------------------------------|
    B|--------1h2--------------------------------|
GTR G|---------------------------10p6h9p5--------| 2    
 1  D|-------------------------------------------|              
    A|-333333-----44444433333344-----------------|
    E|-111111-----22222255555566-----------------|
       PMPMPM     PMPMPMPMPMPMPM

    e|-------------------------------------------|
    B|--------1h2----------------11p7h10p8-------|
GTR G|-------------------------------------------| 2    
 2  D|-------------------------------------------|              
    A|-333333-----44444433333344-----------------|
    E|-111111-----22222255555566-----------------|
       PMPMPM     PMPMPMPMPMPMPM

    e|---------------------------------------------|
    B|--------1h2----------------------------------|
GTR G|-------------------------10-6-9-5-8-4-7-3----| 4    
1+2 D|---------------------------------------------|              
    A|-333333-----444444333333---------------------|
    E|-111111-----222222555555---------------------|
       PMPMPM     PMPMPMPMPMPM          
    
    e|------------- x2 ------------|
    B|-----------------------------|
GTR G|-----------------------------|
1+2 D|-3-----3h4p3-1h3-4h7-6h7-3h4-|         
    A|-----------------------------|
    E|---1-1-----------------------|
         P M                                                                

    e|------------------------------------|
    B|------------------------------------|
GTR G|-10-10h11p10-8h10-11h14-11h14-11h14-|   
1+2 D|------------------------------------|            
    A|------------------------------------|
    E|------------------------------------|
                                                                         
    e|-------------------------------|
    B|-------------------------------|
GTR G|-----------------------------5-|    
1+2 D|-3-----3h4p3-1h3-4h7-6h7-3h4-5-|             
    A|-----------------------------3-|
    E|---1-1-------------------------|
         P M                  
        
    e|-17tr18---------------------------|
    B|----------------------------------|
GTR G|----------------------------------|    
 1  D|----------------------------------|              
    A|----------------------------------|
    E|----------------------------------|

repeat previous sections but instead of trill do this:

---------------------------------------------------------------------------

    e|----------------------------------------|
    B|----------------------------------------|
GTR G|-5--------------------------------------|    
1+2 D|-5--------------------------------------|              
    A|-3--------------------------------------|
    E|----------------------------------------|

    e|------------------------|
    B|------------------------|
GTR G|-1717171717--------1818-|    
 1  D|-----------17171818-----|              
    A|------------------------|
    E|------------------------|

    e|------------------------------------------------------|
    B|------------------------------------------------------|
GTR G|-17171717----1817171717----18181717171717--------1818-|    
 1  D|---------1718----------1718--------------17171818-----|              
    A|------------------------------------------------------|
    E|------------------------------------------------------|

    e|------------------------------------------------------|
    B|---14--14--------14--14--------------14--14-----------|
GTR G|-13--13--------13--13--------------13--13-------------|    
 2  D|------------------------------------------------------|              
    A|------------------------------------------------------|
    E|------------------------------------------------------|
  
    e|----------------------------------------------------|
    B|----------------------------------------------------|
GTR G|-1515151515151515-1616161616161616-1414141414141414-|   
1+2 D|----------------------------------------------------|          
    A|----------------------------------------------------|
    E|----------------------------------------------------|

    e|----------- x2 --------------------|
    B|-----------------------------------|
GTR G|-171717-18-171717-18-171717-18h21--|    
1+2 D|-----------------------------------|              
    A|-----------------------------------|
    E|-----------------------------------|

    e|---------------------------------|
    B|---------------------------------|
GTR G|-5-5-5-5-5-5-5-5-5-5-5-5-5-5-5-5-|    
1+2 D|-5-5-5-5-5-5-5-5-5-5-5-5-5-5-5-5-|              
    A|-3-3-3-3-3-3-3-3-3-3-3-3-3-3-3-3-|
    E|---------------------------------|
       P M P M P M P M P M P M P M P M

---------------------------------------------------------------

    e|----------------------------------------|
    B|----------------------------------------|
GTR G|-11-10/11-10-10-10-11-11-10/11-10-10-10-|    
1+2 D|-11-10/11-10-10-10-11-11-10/11-10-10-10-| x2              
    A|-9--8/-9--8--8--8--9--9--8/-9--8--8--8--|
    E|----------------------------------------|
                   P  M                 P  M

    e|----------------------------------------|
    B|----------------------------------------|
GTR G|-11-10/11-10-10-10-11-11-10/11-10-10-10-|    
 1  D|-11-10/11-10-10-10-11-11-10/11-10-10-10-|           
    A|-9--8/-9--8--8--8--9--9--8/-9--8--8--8--|
    E|----------------------------------------|
                   P  M                 P  M
                   
    e|------------------------------------------12*-|
    B|--------------------------------------12*-----|
GTR G|-11-10/11-10-10-10-11-11-10/11-10-12*---------|    
 2  D|-11-10/11-10-10-10-11-11-10/11-10-------------|           
    A|-9--8/-9--8--8--8--9--9--8/-9--8--------------|
    E|----------------------------------------------|
                   P  M 

    e|----------------------------------------|
    B|----------------------------------------|
GTR G|-11-10/11-10-10-10-11-11-10/11-10-10-10-|    
 1  D|-11-10/11-10-10-10-11-11-10/11-10-10-10-|           
    A|-9--8/-9--8--8--8--9--9--8/-9--8--8--8--|
    E|----------------------------------------|
                   P  M                 P  M

    e|-------------------------------------------|
    B|-------------------------------------------|
GTR G|-11-10/11-10-10-10-11-11-10/11-10----------|    
 2  D|-11-10/11-10-10-10-11-11-10/11-10----------|           
    A|-9--8/-9--8--8--8--9--9--8/-9--8--7h8h10---|
    E|-------------------------------------------|
                   P  M

repeat 

----------------------------------------------------------------

    e|----------------------------------------------------|
    B|----------------------------------------------------|
GTR G|-14-13-------13-12-------12-11-------12-------------| x4  
 1  D|-16-15-------15-14-------14-13-------10-----10h11---|              
    A|-12-11-------11-10-------10-9--------8--8h9---------|
    E|----------------------------------------------------|

    e|----------------------------------------------------|
    B|----------------------------------------------13h14-|
GTR G|----------------------------------------10h11-------| x4    
 2  D|-------3-3-3-------3-3-3-------3-3-3----------------|              
    A|-------3-3-3-------3-3-3-------3-3-3----------------|
    E|-------1-1-1-------1-1-1-------1-1-1----------------|
             P M PM      P M PM      P M PM

    e|---------------------------------------------------|
    B|---------------------------------------------------|
GTR G|-14-13---13---13-12-12-----12-11-11----10----------|   
 1  D|-16-15-15--15-15-14---11---14-13---10--6-----10h11-| x2              
    A|-12-11--------11-10-----10-10-9------9-8--8h9------|
    E|---------------------------------------------------|

    e|---------------------------------------------------|
    B|----------------------------------------------13h14|
GTR G|-----------------------------------------10h11-----| x2    
 2  D|-------3-3-3--------3-3-3--------3-3-3-------------|              
    A|-------3-3-3--------3-3-3--------3-3-3-------------|
    E|-------1-1-1--------1-1-1--------1-1-1-------------|
             P M PM       P M PM       P M PM
    e|----------------------- x2 ----------------------------|
    B|-------------------------------------------------------|
GTR G|-101110------13-12------12-11--------------------11h12-|   
 1  D|-101110------15-14------14-13------------10-9-10-------|              
    A|-8-9-8-------11-10------10-9-----9-8-9-8---------------|
    E|-------------------------------------------------------|

    e|----------------------- x2 ----------------------------|
    B|--------------------------------------------------13h14|
GTR G|-101110--------------------------------------10h11-----|    
 2  D|-101110-3-3-3-----3-3-3------3-3-3---------------------|              
    A|-8-9-8--3-3-3-----3-3-3------3-3-3---------------------|
    E|--------1-1-1-----1-1-1------1-1-1---------------------|
              P M PM    P M PM     P M PM

---------------------------------------------------------------------------

    e|-----------------------------------|
    B|-----------------------14-------13-|
GTR G|-----------------11-10----11-14----|    
 1  D|-----------11-10-------------------| x2              
    A|---9-8-9-8-------------------------|
    E|-----------------------------------|

    e|-------------------------------------------------|
    B|----13-14----14-13----14-13----13-14-13----13-14-|
GTR G|-------------------------------------------------|    
 1  D|-16-------16-------16-------16----------16-------|              
    A|-------------------------------------------------|
    E|-------------------------------------------------|

repeat

----------------------------------------------------------------------------

    e|------------------------------------------------|
    B|--------1h2--------6h7p6------4-4-4-4-4-4-7-7-7-|
GTR G|------------------------------1-1-1-1-1-1-4-4-4-| 1,3    
1+2 D|------------------------------------------------|              
    A|-333333-----444444-------3333-------------------|
    E|-111111-----222222-------1111-------------------|
       PMPMPM     PMPMPM       PMPM

    e|-------------------------------------------|
    B|--------1h2--------------------------------|
GTR G|---------------------------10p6h9p5--------| 2    
 1  D|-------------------------------------------|              
    A|-333333-----44444433333344-----------------|
    E|-111111-----22222255555566-----------------|
       PMPMPM     PMPMPMPMPMPMPM

    e|-------------------------------------------|
    B|--------1h2----------------11p7h10p8-------|
GTR G|-------------------------------------------| 2    
 2  D|-------------------------------------------|              
    A|-333333-----44444433333344-----------------|
    E|-111111-----22222255555566-----------------|
       PMPMPM     PMPMPMPMPMPMPM

    e|---------------------------------------------|
    B|--------1h2----------------------------------|
GTR G|-------------------------10-6-9-5-8-4-7-3----| 4    
1+2 D|---------------------------------------------|              
    A|-333333-----444444333333---------------------|
    E|-111111-----222222555555---------------------|
       PMPMPM     PMPMPMPMPMPM

solo

    e|----------------------------------------|
    B|----------------------------------------|
GTR G|--------------------11--10--9--8--------|    
1+2 D|--------------------11--10--9--8--------| x8              
    A|--------------------9---8---7--6--------|
    E|-111111111111111111---------------------|
       PMPMPMPMPMPMPMPMPM

    e|------------- x2 ------------|
    B|-----------------------------|
GTR G|-----------------------------|
1+2 D|-3-----3h4p3-1h3-4h7-6h7-3h4-|          
    A|-----------------------------|
    E|---1-1-----------------------|
         P M                                                                

    e|------------------------------------|
    B|------------------------------------|
GTR G|-10-10h11p10-8h10-11h14-11h14-11h14-|   
1+2 D|------------------------------------|              
    A|------------------------------------|
    E|------------------------------------|
                      
    e|-------------------------------|
    B|-------------------------------|
GTR G|-----------------------------5-|    
1+2 D|-3-----3h4p3-1h3-4h7-6h7-3h4-5-|              
    A|-----------------------------3-|
    E|---1-1-------------------------|
         P M           

    e|-------------------------------|
    B|-------------------------------|
GTR G|-------------------------------|    
1+2 D|--------------------6--5--4----| x3              
    A|-333333333333333333----------4-|
    E|-111111111111111111------------|
       PMPMPMPMPMPMPMPMPM

    e|-------------------------------|
    B|-------------------------------|
GTR G|-------------------------------|    
1+2 D|--------------------7--6--5----|              
    A|-444444444444444444----------5-|
    E|-222222222222222222------------|
       PMPMPMPMPMPMPMPMPM

    e|---------------------------|
    B|---------------------------|
GTR G|---------------------------|    
1+2 D|-6--5--4--4h5p4--------3-3-|              
    A|-----------------3--4--3-3-|
    E|-----------------------1-1-|
                             P M

END

email any corrections / suggestions to thisisourstruggle@hotmail.co.uk
Tap to rate this tab
 
# A B C D E F G H I J K L M N O P Q R S T U V W X Y Z