Song name
# A B C D E F G H I J K L M N O P Q R S T U V W X Y Z

Vektor - Cosmic Cortex tab

This song is in an odd tuning (F standard) which can be accomplished by 
tuning each string up a half step or you can put a capo on the first fret 
which is what I do and so the tab is written accordingly. 


||--------0---------|------0---------|------0---------|------0---------|
||o-----5---5-------|----5---5-------|----5---5-------|----5---5-------|
||----5-------5-----|--5-------5-----|--5-------5-----|--5-------5-----|
||--7-----------7-6-|7-----------7-6-|7-----------7-6-|7-----------7-6-|
||o-----------------|----------------|----------------|----------------|
||------------------|----------------|----------------|----------------|

|-------0---------|------0---------|
|-----4---4-------|----4---4-------|
|---4-------4-----|--4-------4-----|
|-6-----------6-5-|6-----------6-5-|
|-----------------|----------------|
|-----------------|----------------|

|-------0---------|------0---------|------0---------|------0--------|
|-----5---5-------|----5---5-------|----5---5-------|----5---5------|
|---5-------5-----|--5-------5-----|--5-------5-----|--5-------5----|
|-7-----------7-6-|7-----------7-6-|7-----------7-6-|7-----------7-6|
|-----------------|----------------|----------------|---------------|
|-----------------|----------------|----------------|---------------|

|-------0---------|------0---------|-------0---------|------0--------|
|-----4---4-------|----4---4-------|-----4---4-------|----4---4------|
|---4-------4-----|--4-------4-----|---4-------4-----|--4-------4----|
|-6-----------6-5-|6-----------6-5-|-6-----------6-5-|6-----------6-5|
|-----------------|----------------|-----------------|---------------|
|-----------------|----------------|-----------------|---------------|

|-----------------|----------------|----------------|---------------|
|-----0-------0---|----0-------0---|----0-------0---|----0-------0--|
|---7---7---7---7-|--7---7---7---7-|--6---6---6---6-|--6---6---6---6|
|-5-------5-------|5-------5-------|4-------4-------|4-------4------|
|-----------------|----------------|----------------|---------------|
|-----------------|----------------|----------------|---------------|

|-----------------|----------------|----------------|---------------|
|-----0-------0---|----0-------0---|----0-------0---|----0-------0--|
|---7---7---7---7-|--7---7---7---7-|--6---6---6---6-|--6---6---6---6|
|-5-------5-------|5-------5-------|4-------4-------|4-------4------|
|-----------------|----------------|----------------|---------------|
|-----------------|----------------|----------------|---------------|

|-------0---------|------0---------|------0---------|------0--------|
|-----5---5-------|----5---5-------|----5---5-------|----5---5------|
|---5-------5-----|--5-------5-----|--5-------5-----|--5-------5----|
|-7-----------7-6-|7-----------7-6-|7-----------7-6-|7-----------7-6|
|-----------------|----------------|----------------|---------------|
|-----------------|----------------|----------------|---------------|

|-------0---------|------0---------|-------0---------|------0--------|
|-----4---4-------|----4---4-------|-----4---4-------|----4---4------|
|---4-------4-----|--4-------4-----|---4-------4-----|--4-------4----|
|-6-----------6-5-|6-----------6-5-|-6-----------6-5-|6-----------6-5|
|-----------------|----------------|-----------------|---------------|
|-----------------|----------------|-----------------|---------------|

|-----------------|----------------|----------------|---------------|
|-----0-------0---|----0-------0---|----0-------0---|----0-------0--|
|---7---7---7---7-|--7---7---7---7-|--6---6---6---6-|--6---6---6---6|
|-5-------5-------|5-------5-------|4-------4-------|4-------4------|
|-----------------|----------------|----------------|---------------|
|-----------------|----------------|----------------|---------------|

|-----------------|----------------|----------------|-----------------||
|-----0-------0---|----0-------0---|----0-------0---|----0-------0---o||
|---7---7---7---7-|--7---7---7---7-|--6---6---6---6-|--6---6---6---6--||
|-5-------5-------|5-------5-------|4-------4-------|4-------4--------||
|-----------------|----------------|----------------|----------------o||
|-----------------|----------------|----------------|-----------------||
Tap to rate this tab
 
# A B C D E F G H I J K L M N O P Q R S T U V W X Y Z