Song name
# A B C D E F G H I J K L M N O P Q R S T U V W X Y Z

Velcro - Bolunji tab

Help us improve GuitareTab! Take a short survey!
E----------------------------------------------13b-12-10----10b----------|
B--------------------------------------------------------13-----13-13s15-|
G--12-10-9----------10-12s14-12-10-12s14-12-10---------------------------|
D----------10-8-7-8------------------------------------------------------|
A------------------------------------------------------------------------|
E------------------------------------------------------------------------|

E-13-10----10-------------------------------------------------------|
B-------13----13-11--11-10-11--12-9-10b-----------------------------|
G-------------------------------------------------------------------|
D-------------------------------------------------------------------|
A-------------------------------------------------------------------|
E-------------------------------------------------------------------|

E--------------------------------17b-15-11-15------------------------------------------------------------|
B------------------------8h10-12--------------s13-13-13s11-11-11-11s10-10-10-10s8-8-8-8s6-6-6-6s5-5h6-6--|
G---------------7-7h8-10---------------------------------------------------------------------------------|
D------7-8-8h10------------------------------------------------------------------------------------------|
A-8-10---------------------------------------------------------------------------------------------------|
E--------------------------------------------------------------------------------------------------------|
Related for Bolunji tab