Song name
# A B C D E F G H I J K L M N O P Q R S T U V W X Y Z

Velvet Revolver - Bodies tab

Bodies (AKA track 14 on contraband)
Velvet Revolver
Contraband
Tabbed by Ryan.c


Intro
e:------------------------------|
b:-2-2-2-2-2-2-2-2--------------|
g:-2-(4)-(4)-(4)-(4)------------|
d:------------------------------|
a:------------------------------|
e:------------------------------|

verse
|----------------------------|(x4)
|----------------------------|
|----------------------------|
|-8/9-9-9--8/9-9-9--8/9-9-9--|
|-8/9-9-9--8/9-9-9--8/9-9-9--|
|-6/7-7-7--6/7-7-7--6/7-7-7--|

|----------------------------|----------------------------|(x2)
|----------------------------|----------------------------|
|----------------------------|----------------------------|
|-3/4-4-4--3/4-4-4--3/4-4-4--|-8/9-9-9--8/9-9-9--8/9-9-9--|
|-3/4-4-4--3/4-4-4--3/4-4-4--|-8/9-9-9--8/9-9-9--8/9-9-9--|
|-1/2-2-2--1/2-2-2--1/2-2-2--|-6/7-7-7--6/7-7-7--6/7-7-7--|


Chorus
|-----------------------------------|----------------------------|
|-----------------------------------|----------------------------|
|-----------------------------------|-6/7-7-7--6/7-7-7--6/7-7-7--|
|-5-5-5-5-5-5-5-5--7-7-7-7-7-7-7-7--|-6/7-7-7--6/7-7-7--6/7-7-7--|
|-5-5-5-5-5-5-5-5--7-7-7-7-7-7-7-7--|-4/5-5-5--4/5-5-5--4/5-5-5--|
|-3-3-3-3-3-3-3-3--5-5-5-5-5-5-5-5--|----------------------------|

thats it,

ill fix up the intro later.
Tap to rate this tab
 
# A B C D E F G H I J K L M N O P Q R S T U V W X Y Z