Song name
# A B C D E F G H I J K L M N O P Q R S T U V W X Y Z

Velvet Revolver - Let It Roll tab

-------------------------------------------------------------------------------
			     Let it Roll – Velvet Revolver
-------------------------------------------------------------------------------
Tabbed by: psychokiller99
Email:cris9288@yahoo.com

Tuning:Standard

This is a really cool song, probably my favorite off the second record. To get slash’s 
on this song, use a Q-Zone pedal with the peak and Q knobs set to a little past halfway. 
turn on a wah, put it in the toe down position, then pull it back just slightly.

Song Goes like this:

Intro Riff x4
Main x4
Verse Riff x4
Chorus Riff
Main x4
Verse Riff x4
Chorus
Main Riff x2
Chorus
Main Riff x2
Bridge
Solo (play daves verse riff underneath)
Chorus
Main Riff until end of song

Riffs Tabbed Below:

Intro Riff

e|---------------------------------|
B|---------------------------------|
G|---------------------------------|
D|---------------------------------|
A|---------------------------------|
E|-12-0-11-0-10-10-0-5-0-4-0-3/10--|

Main Riff: Slash

e|-----------------------------3--2---------|
B|-----------------------------3--3---------|
G|-----------------------------0--2---------|
D|-----------------------------0--0---------|
A|-14---13---12-12---7------6--2------------|
E|-12-0-11-0-10-10-0-5----0-4--3------------|

Main Riff: Dave

e|-------------------------------------|
B|-------------------------------------|
G|-------------------------------------|
D|-------------------------------------|
A|-14---13---12-12---7------6-x---12---|
E|-12-0-11-0-10-10-0-5----0-4-x---10---|

Verse: Slash
e|---------------------------------------------|
B|----------------------0-0-2p0-2-3~~~---------|
G|----------------------0-0-2p0-2-2~~~---------|
D|--2—(2)--------------------------------------|
A|--2-(2)--------------------------------------|
E|--0—(0)--------------------------------------|

Verse: Dave
e|---------------------------------------------------------------------------|
B|----------------------------------------------------0-0-2p0-2-3~~----------|
G|----------------------------------------------------0-0-2p0-2-2~~----------|
D|--2---2---22-(2)---2---2---2---22-(2)---2--2---22--------------------------|
A|--2---2---22-(2)---2---2---2---22-(2)---2--2---22--------------------------|
E|--0---0---00—(0)---0---0---0---00—(0)---0--0---00--------------------------|

Pre Chorus: Slash/Dave
e|---------------------------------------------------------------------------|
B|---------------------------------------------------------------------------|
G|-555555------777777--------------------------------------------------------|
D|-555555-5----777777-7------------------------------------------------------|
A|-333333-5----555555-7------------------------------------------------------|
E|--------3-----------5------------------------------------------------------|


Chorus : Main Riff

Bridge:

e|---------------------------------------------------------------------------|
B|--------------------------15--14--13--12--11—-10---------------------------|
G|--7----------9----7---9---17b—16b-15b-14b-13b—12b--------------------------|
D|--------4------------------------------------------------------------------|
A|--5----------7----5---7----------------------------------------------------|
E|---------------------------------------------------------------------------|

e|---------------------------------------------------------------------------|
B|---------------------------------------------------------------------------|
G|--3---------5---------7----------------------------------------------------|
D|--3----3----5----5----7---7-6-5-4-3---2------------------------------------|
A|--1----3----3----5----5---5-4-3-2-1p0-2------------------------------------|
E|-------1---------3--------------------0------------------------------------|

Solo: w/Stationary Wah

e|------0-------0-------0-----------0-2-0h2p0----0----0-0-0------------------|
B|--3b5---0-3b5---0-3b5---0-2b3----------------3---3b-------3p0----0-3~~~----|
G|-----------------------------------------------------------2b--------------|
D|---------------------------------------------------------------------------|
A|---------------------------------------------------------------------------|
E|---------------------------------------------------------------------------|

e|----------0-------0-------------------------------------------------------|
B|-----3p0----0-3p0---2b3r2p0-2p0---------------2---------------------------|
G|-2p0----------------------------2p0-------2/4---4\2-0-3-2-0---------------|
D|------------------------------------------------------------2-------------|
A|--------------------------------------------------------------------------|
E|--------------------------------------------------------------------------|

e|----------------------------|
B|----------------------------|
G|----------------------------|
D|-7-5-7-7b(1/4)-5b(1/4)------|
A|------------------------7---|
E|----------------------------|


e|---------------------------------------------------------------------------|
B|---------------------------------------------------------------------------|
G|---------------------------------------------------------------------------|
D|-7b9~~~--r7p5---5-7-5---5--------------------------------------------------|
A|--------------7-------7---7-5----5h7-5---7p5-------------------------------|
E|-------------------------------7-------7-----7-6-7-6-5—3~~-----------------|

e|------------------------------------------------10----10/12-----15p12------|
B|------------------------------------8---8h10/12----12-------12--------12h15|
G|---------------9p7-----7---7h9-7/9----9------------------------------------|
D|-----5----7/9------7/9---9-------------------------------------------------|
A|-5/7---7-------------------------------------------------------------------|
E|---------------------------------------------------------------------------|

e|-12----15b17—15b17-15~~~--17b19—17~~~~---15b17---15b-17b—-—19b-20b—22b~~---|
B|---12----------------------------------------------------------------------|
G|---------------------------------------------------------------------------|
D|---------------------------------------------------------------------------|
A|---------------------------------------------------------------------------|
E|---------------------------------------------------------------------------|


| /  slide up
| \  slide down
| h  hammer-on
| p  pull-off
| ~  vibrato
| +  harmonic
| x  Mute note
===============================================================================
Tap to rate this tab
# A B C D E F G H I J K L M N O P Q R S T U V W X Y Z