Song name
# A B C D E F G H I J K L M N O P Q R S T U V W X Y Z

Velvet Revolver - Slither tab

check out my profile which has the link to my website for videos of me playing this song 
you from the 26th march 2010 onwards

p.s.=pic slide
s/=slide up
s\=slide down
D= downstroke
U=upstroke
p.m.=malm mute
b=bend up

intro part1:
p.s.-------------|
|----------------|
|----------------|
|----------------|
|----------------|
|----------------|
|-x-x-x-x-x-x----|
Use of delay at about a quarter note with the wah wah pedal as well
Using your pic slide up and down on the E string whilst using the wah pedal

intro part 2:
|------------------------------------------------------------------------|
|------------------------------------------------------------------------|
|---7---7---7--7--s/--10-10--s/--12----12----7--7--7--s/--10--10--s\--7--|
|---x---X---x--X------X--X-------X------X----X--X--X-------X--X-------X--|
|---5---5---5--5--s/--8--8---s/--10----10----5--5--5--s/---8--8---s\--5--|
|------------------------------------------------------------------------|
    D   D   U  D  /   D  D   /          D    D  D  U       D  D       U


verse part 1: (play 4 times)
|---------------------------------------------------------------------------|
|---------------------------------------------------------------------------|
|---------------------------------------------------------------------------|
|--0--3-4--0-6-7--0--10--0--6-7--0--5--0--3-s/-4----------------------------|
|--0--3-4--0-6-7--0--10--0--6-7--0--5--0--3-s/-4----------------------------|
|--0--3-4--0-6-7--0--10--0--6-7--0--5--0--3-s/-4----------------------------|

lead riff on the 4th repeat:

|----------------------------------------------------------------------|
|---------------9-10-----13----9-10------------------------------------|
|------10-11----------------------------12----10V----------------------|
|---12-------12-------12----12-------12--------------------------------|
|----------------------------------------------------------------------|
|----------------------------------------------------------------------|

Verse part 3: (Play 8 times)
P.M.------------------------------------------------------------------------|
|---------------------------------------------------------------------------|
|---------------------------------------------------------------------------|
|---------------------------------------------------------------------------|
|--0--3-4--0-6-7--0--10--0--6-7--0--5--0--3-s/-4----------------------------|
|--0--3-4--0-6-7--0--10--0--6-7--0--5--0--3-s/-4----------------------------|
|--0--3-4--0-6-7--0--10--0--6-7--0--5--0--3-s/-4----------------------------|


1st verse lead part on the 4th and 8th bar:

|------------------------------------------------------------------------|
|------------------------------------------------------------------------|
|------------------------------------------------------------------------|
|-0-3-4b--0-6-7b--0-10b--0-6-7b--0-3b--0--3------------------------------|
|------------------------------------------------------------------------|
|------------------------------------------------------------------------|


2nd verse lead part on the 4th bar
|----------------------------------------------------------------------|
|----------------------------------------------------------------------|
|----------------------------------------------------------------------|
|----------------------------------------------------------------------|
|----------------------------------------------------------------------|
|--0--3--4--0--6--7b--0--10b--0--6--7b--0--3b--0-3---------------------|


chorus chords:
play open and let them ring

|---3----3--------|---------------|-3------------|-----3--------------|
|---2----2--------|-3--------3----|-3------------|-----2--------------|
|---0----0--------|-0--------0----|-0------------|-----0--------------|
|---0----0--------|-2--------2----|-0------------|--------------------|
|---0----0--------|-3--------3----|-2------------|--------------------|
|---0----0--------|---------------|--------------|--------------------|
Tap to rate this tab
# A B C D E F G H I J K L M N O P Q R S T U V W X Y Z