Guitaretab - guitar tabs
Song name
# A B C D E F G H I J K L M N O P Q R S T U V W X Y Z

Velvet Revolver - Come On Come In tab

Tuning: D A D G B E

Chorus x4
G----------5-0-------------------------------|
D----7-5------7-0-5-7 (every other time 7-5)-|
A-55--5-8-5------8---------------------------|
D--------------------------------------------|

Verse x4
G----------------------------------------------------------------|
D-------------44-3-------------555 (this may be replaced by 333--| on the a string the 
time, check it if you\'re not sure it sounds right)
A-5-55-55-5-55----6-66-66-5-333----------------------------------|
D----------------------------------------------------------------|
[ Tab from: http://www.guitaretab.com/v/velvet-revolver/60781.html ]
Bridge/Pre-chorus x2
G------------------------------------------------|
D------------------------------------------------|
A-101010-999-888-777-77-77-666-666-66-666-666-66-|
D------------------------------------------------|

chorus x 4

verse x 4

bridge x 2

chorus x 4

Special section (x 1)
G----------8-88-888-8-88-333-5-55-555-5-55-101010-8-88-888-8-88-333-5-55-554-333-----|
D----7-5-8----------------------------------------------------------------------33-2-|
A-55--5-8----------------------------------------------------------------------------|
D------------------------------------------------------------------------------------|

special section (continued) x1
G------------------|
D------------------|
A-666-666-6-66-888-|
D------------------|

(unusual section follows, bass does play but it is easy to figure out so not included)

chorus x 4

bridge x 2

chorus x 11
Related for Come On Come In tab
Come On Come In chords by Velvet Revolver