Song name
# A B C D E F G H I J K L M N O P Q R S T U V W X Y Z

Velvet Revolver - Dont Drop That Dime tab

=================================================================
=================================================================
=================================================================
===== Velvet Revolver - Don't Drop that Dime 2nd solo ===========
=================================================================
=================================================================
======================================== Tabbed by: Lee =========
=================================================================
=================================================================
=================================================================


/   - Slide
~   - Vibrato
h   - hammeron
p   - pulloff
r   - release
b   - bend
(0) - invisible note

Tuning: (Eb Ab Db Gb Bb Eb)

The 2nd Solo:

---12--12--12--12--12--12--12--11--11-10-10-9-8~-8~--8~--|
------------------------------------------------8---8----|
-12--12--12--12--12--12--12--10--10--9--9--9-9-----------|
---------------------------------------------------------|
---------------------------------------------------------|
---------------------------------------------------------|


---12---10~-~---10b-10-p-8-10b-10-p-8-8~---|
------8-------8----------------------------|
-9-----------------------------------------|
-------------------------------------------|
-------------------------------------------|
-------------------------------------------|

-------8-----15--------15b-15p12-------------------|
-(8)/10---15b--15r-13------------15r-p13-15-15b-~--|
---------------------------------------------------|
---------------------------------------------------|
---------------------------------------------------|
---------------------------------------------------|


----------------------------------------|
--------15b-15~-~--15rp13-15-15b~--~----|
----------------------------------------|
----------------------------------------|
----------------------------------------|
----------------------------------------|

If you hear it while listening to the lyrics you could hear:

--------------------------------|
--------------------------------|
-------14--12--10--8--7--5------|
--------------------------------|
---10--12--10--8---6--5--3------|
--------------------------------|

====================================================================
====================================================================
====================================================================
========== Any comments appreciated thank you ;D ===================
====================================================================
====================================================================
====================================================================
Tap to rate this tab
 
# A B C D E F G H I J K L M N O P Q R S T U V W X Y Z