Song name
# A B C D E F G H I J K L M N O P Q R S T U V W X Y Z

Velvet Revolver - Pills Demons Etc tab

-------------------------------------------------------------------------------
		PILLS, DEMONS & ETC. - Velvet Revolver
-------------------------------------------------------------------------------

Tabbed by: Spencer B.
Email:

Tuning:Standard

The intro and interlude lead is already perfectly tabbed in the intro version, 
use that so I don't have to copy someone else's tab. Feedback is always welcome.

Intro Rhythm:

  A5 G5 C5 G5 
e|---------------------------|
B|---------------------------|
G|-------5----------------5--|
D|-7--5--5--5--7-5--7--5--5--|
A|-7--5--3--5--7-5--7--5--3--|
E|-5--3-----3--5-3--5--3-----|


Verse:
   Pickscrapes       A5 G5 C5 G5
e|---------------------------------------------------------------------------|
B|-x-x-x-x--x-x-x-x----------------------------------------------------------|
G|-x-x-x-x--x-x-x-x--------5--------------5--------------5--------------5----|
D|-x-x-x-x--x-x-x-x--7--5--5--5-----7--5--5--5-----7--5--5--5-----7--5--5--5-|
A|-x-x-x-x--x-x-x-x--7--5--3--5-----7--5--3--5-----7--5--3--5-----7--5--3--5-|
E|-------------------5--3-----3-----5--3-----3-----5--3-----3-----5--3-----3-|

Chorus:

Rhythm:
   F5         C5    G5         A5 
e|---------------------------------|
B|---------------------------------|
G|------------5-5-0----------------|
D|-3--3--3-3--5-5-0-5--5--5-5--7-7-|
A|-3--3--3-3--3-3-0-5--5--5-5--7-7-|
E|-1--1--1-1--------3--3--3-3--5-5-|

Lead:
   G5
e|-17----17----17----17----|
B|----15----15----15----15-|
G|-------------------------|
D|-------------------------|
A|-------------------------|
E|-------------------------|

Solo Rhythm:

  A5 G5 C5 G5 
e|-----------------|
B|-----------------|
G|-------5---------|
D|-7--5--5--5--7-5-|
A|-7--5--3--5--7-5-|
E|-5--3-----3--5-3-|

I'm Still Working on the solo, and I'll update once I finish 
(which should be soon). In the mean time, it's all obviously in C Maj, so 
that would be the key to solo in if you want to.

Song Structure:
Intro
Verse
Chorus
Interlude
Verse
Chorus
Interlude
Solo
Outro(Intro, with the focus on the octave higher guitar)
Tap to rate this tab
# A B C D E F G H I J K L M N O P Q R S T U V W X Y Z