Song name
# A B C D E F G H I J K L M N O P Q R S T U V W X Y Z

Velvet Underground - The Murder Mystery tab

-------------------------------------------------------------------------------
	           THE MURDER MYSTERY - Velvet Underground
-------------------------------------------------------------------------------
Tabbed by: Mike Getz
Email: mgetz1@gmail.com

Here's my transcription of the intro to The Murder Mystery.  It sort of combines the 
and bass parts into one thing that you can play and have it sound as it does on the album.

Tuning: Standard

e|-----------------------------------------|
B|-----------------------------------------|
G|-----------------------------------------|
D|-------------------------------3-3-3-3-3-|
A|-1-1-1-1-1-3-3-3-3-3-5-5-5-5-5-x-x-x-x-x-|
E|-3-3-3-3-3-3-3-3-3-3-3-3-3-3-3-3-3-3-3-3-|

e|----------------------------------------------|
B|----------------------------------------------|
G|-0-0-0-0-0-0-0-0-0-0-0-0-0-0-0-0--0--0--0--0--|
D|-2-2-2-2-2-5-5-5-5-5-8-8-8-8-8-12-12-12-12-12-|
A|----------------------------------------------|
E|----------------------------------------------|

| x  Mute note
===============================================================================
Tap to rate this tab
# A B C D E F G H I J K L M N O P Q R S T U V W X Y Z