Guitaretab - guitar tabs
Song name
# A B C D E F G H I J K L M N O P Q R S T U V W X Y Z

Velvet Underground - Heroin tab

-------------------------------------------------------------------------------
			     HEROIN - Velvet Underground
-------------------------------------------------------------------------------
Tabbed by: Ben Aitken
Email: ben.j.aitken@gmail.com

Tuning: 1/2 step down (EbAbDbGbBbEb)

|--------------------------2-----------------------------------------------------------------------------------------------|
|--------------------------3-----------------------0-----------------------3-----------------------0-----------------------|
|--2-----------------------2-----------2-----2--2--0-----------------------2--2--2--2--2--2--2--2--0-----------------------|
|--0--0--0--0--0--0--0--0--0--0--0--0--0--0--0--0--0--0--0--0--0--0--0--0--0--0--0--0--0--0--0--0--0--0--0--0--0--0--0--0--|
|--------------------------------------------------------------------------------------------------------------------------|
|--------------------------------------------------------------------------------------------------------------------------|

|--2-----------------------------------------------2-----------------------------------------------|
|--3-----------------------0-----------------------3-----------------------0-----------------------|
|--2-----2--2-----2--2--2--0-----------------------2-----2--2--2--2--2--2--0-----------------------|
|--0--0--0--0--0--0--0--0--0--0--0--0--0--0--0--0--0-----0--0--0--0--0--0--0--0--0--0--0--0--0--0--|
|--------------------------------------------------------------------------------------------------|
|--------------------------------------------------------------------------------------------------|

0:30
|--2----------2-----2-------------0-----0--2--------3--2-----2---------------0----0h2--------2-----2---------------0----|
|--3-----3-------------0-----0-------------3-----3--------------0-------0---------3-------3-----------0-------0---------|
|--2--2----------2-----0--0----------0-----2--2-----------2-----0----0------------2----2--------2-----0----0------------|
|--0-------------------0-------------------0--------------------0-----------------0-------------------0-----------------|
|------------------------------------------------------------------------------------------------------------------------|
|------------------------------------------------------------------------------------------------------------------------|
[ Tab from: http://www.guitaretab.com/v/velvet-underground/20274.html ]
|--2--------3--2-----2----------0-------------0h2----------2-----2---------------0----2--------3--2-----2------------------------|
|--3-----3--------------0-------0----0-----0--3-------3-------------0-------0---------3-----3--------------0-------0----0-----0--|
|--2--2-----------2-----0----0----------0-----2----2----------2-----0----0------------2--2-----------2-----0----0----------0-----|
|--0--------------------0---------------------0---------------------0-----------------0--------------------0---------------------|
|--------------------------------------------------------------------------------------------------------------------------------|
|--------------------------------------------------------------------------------------------------------------------------------|

Repeat with variations for verse (Fig. 1)
|--2------------2-----2---------------------0--2--------3--2-----2---------------------0--|
|--3-------3-------------0-------0----0--------3-----3--------------0-------0----0--------|
|--2----2----------2-----0----0----------0-----2--2-----------2-----0----0----------0-----|
|--0---------------------0---------------------0--------------------0---------------------|
|-----------------------------------------------------------------------------------------|
|-----------------------------------------------------------------------------------------|

"'Cause it makes me feel like a man..." (Fig. 2)
|--------2-----------2--2------------------------|
|--3-----3-----------3--3--0-----0-----0----0----|
|--2-----2-----------2--2--0-----0-----0----0----|
|--0-----0-----------0--0--0-----0-----0----0----|
|------------------------------------------------|
|------------------------------------------------|

Repeat Fig. 1 w/ variations for verse, Fig. 2 w/ variations for chorus

After "closing in on death"
|--2----2--------2--7-----9----7----2----2--------2--7-----9----7----|
|--3----3--------3--8----10----8----3----3--------3--8----10----8----|
|--2----2--------2--7-----9----7----2----2--------2--7-----9----7----|
|--------------------------------------------------------------------|
|--------------------------------------------------------------------|
|---------------------------------------------------------------------|

After "all the dead bodies piled up in mounds"
|--7----7-----9----7----2--2--2--2--2--2--2--2--------------------------|
|--8----8----10----8----3--3--3--3--3--3--3--3--0--0--0--0--0--0--0--0--|
|--7----7-----9----7----2--2--2--2--2--2--2--2--0--0--0--0--0--0--0--0--|
|-----------------------0--0--0--0--0--0--0--0--0--0--0--0--0--0--0--0--|
|-----------------------------------------------------------------------|
|-----------------------------------------------------------------------|
Repeat second part until after "and I guess I just don't know", then Fig. 1 until end

| /  slide up
| \  slide down
| h  hammer-on
| p  pull-off
| ~  vibrato
| +  harmonic
| x  Mute note
===============================================================================
Related for Heroin tab
Heroin chords by Velvet Underground