Guitaretab - guitar tabs
Song name
# A B C D E F G H I J K L M N O P Q R S T U V W X Y Z

Velvet Underground - Im Waiting For The Man tab

-------------------------------------------------------------------------------
	      I'M WAITING FOR THE MAN - The Velvet Underground
-------------------------------------------------------------------------------
Tabbed by: Mike Getz
Email: mgetz1@gmail.com

This is not what the guitar actually plays, as far as I know. It's
more of a combination of what the piano and rhythm guitars are doing that
ends up sounding more like the song than either played by themselves.

Tuning: Standard
[ Tab from: http://www.guitaretab.com/v/velvet-underground/20278.html ]
 Verse:   "I'm waiting for my man..."
e|-------------------------------|
B|-------------------------------|
G|-7-7------7-7-7--4--4-4-5-4--4-|
D|-7-7-9-7--7-7-7--5--5-7-x-x--5-|
A|-5-5-5-5--5-5-5--5--5-5-5-5--5-|
E|-5-5-5-5--5-5-5--3--3-3-3-3--3-|

 Chorus:  "Up to Lexington..."
e|-----------------------------------------------------------------|
B|-7-7-7-7-7-7-7-7-2-2-2-2-2-2-2-2-3-3-3-3-3-3-3-3-0-0-0-0-0-0-0-0-|
G|-7-7-7-7-7-7-7-7-3-3-3-3-3-3-3-3-4-4-4-4-4-4-4-4-1-1-1-1-1-1-1-1-|
D|-7-7-7-7-7-7-7-7-4-4-4-4-4-4-4-4-5-5-5-5-5-5-5-5-2-2-2-2-2-2-2-2-|
A|-5-5-5-5-5-5-5-5-4-4-4-4-4-4-4-4-5-5-5-5-5-5-5-5-2-2-2-2-2-2-2-2-|
E|-5-5-5-5-5-5-5-5-2-2-2-2-2-2-2-2-3-3-3-3-3-3-3-3-0-0-0-0-0-0-0-0-|


| x  Mute note
===============================================================================
Related for Im Waiting For The Man tab
Im Waiting For The Man chords by Velvet Underground