Song name
# A B C D E F G H I J K L M N O P Q R S T U V W X Y Z

Velvet Underground - Venus In Furs tab

Venus In Furs - The Velvet Underground
Album: The Velvet Underground & Nico
Track: 4

Tuning:
Half A Step Down

Main Rift:

E|---------------------------------------------------------|
B|---------------------------------------------------------|
G|------5--------5--------3----------------5--------5------|
D|----5---5----5---5----5---5------------5---5----5---5----|
A|--3--------5--------6-------5-6-5-3--3--------5----------|
E|---------------------------------------------------------|

E|-----------------------|
B|-----------------------|
G|------3----------------|
D|----5---5--------------|
A|--6----------6---6-----|
E|-----------3---3---3---|

Chorus Part 1, repeat 3 times:

E|-------------------------------------------------|
B|-------------------------------------------------|
G|--3---3--3--------------------------3---3--3--3--|
D|--5---5--5---6---6--6----8---8--8---5---5-5h6-5--|
A|--6---6--6---6---6--6----8---8--8---6---6--6--6--|
E|-------------4---4--4----6---6--6----------------|

Chorus Part 2:

E|-------------------------------------|
B|-------------------------------------|
G|------5--------5----------------5----|
D|----5---5----5---5----5---5---5---5--|
A|--3--------5--------6---5---3--------|
E|-------------------------------------|

Fin
Tap to rate this tab
# A B C D E F G H I J K L M N O P Q R S T U V W X Y Z