Song name
# A B C D E F G H I J K L M N O P Q R S T U V W X Y Z

Velvet Underground - European Son tab

the bass line should look something like this......

Bass intro:
---------------------------|Repeat throughout song
----------5----------------|
---3-4-5----5-4-3----------|
-5-------------------------|

Guitar:

you killed your european son
you spit on those under 21
but now your blue cars are gone you better say so long

---------------------------------------------------------------------------|
-------------------------------------------3-3-3-3-3-3---------------------|
-7-7--x--7--Repeat-------------------------4-4-4-4-4-4----repeat-for-2nd---|
-7-7--x--7---------------------------------5-5-5-5-5-5----------verse------|
-5-5--X--5---------------------------------x-x-x-x-x-x---------------------|
-------------------------------------------3-3-3-3-3-3---------------------|

after the smashing of the plate comes the solo which is mainly improv.
Tap to rate this tab
# A B C D E F G H I J K L M N O P Q R S T U V W X Y Z