Song name
# A B C D E F G H I J K L M N O P Q R S T U V W X Y Z

Velvet Underground - All Tomorrows Parties tab

Velvet Underground - All Tomorrow's Parties

riff:

To all tomorrow's parties
    {G    /     Em}  {A}           {A}
 1e -----------------------------------------------|
 2B -----------------------------------------------|
 3G -----------------------------------------------|
 4D ------------------7---7--5---5--9---9--7---7---|
 5A -----------------------------------------------|
 6E ------------------5---5--3---3--7---7--5---5---|

riff:

... when midnight comes around
    {G}  {A}   {G}           {A}           {A}
 1e -------------------------------------------------------|
 2B -------------------------------------------------------|
 3G -------------------------------------------------------|
 4D --------------------------7---7--5---5--9---9--7---7---|
 5A -------------------------------------------------------|
 6E --------------------------5---5--3---3--7---7--5---5---|
Tap to rate this tab
 
# A B C D E F G H I J K L M N O P Q R S T U V W X Y Z