Song name
# A B C D E F G H I J K L M N O P Q R S T U V W X Y Z

Velvet Underground - Black Angels Death Song tab

Velvet Underground - The Black Angel's Death Song

Tabbed by Uchiha23

intro (all the strings downtuned a whole-tone)

d -------|
A -------|
F -------|
C --0----|
G -------|
D -------|

 {D}                        {D}
-------------------------------------------------------|
-------------------------------------------------------|
------2-2----------2-2-----------2-2-------------------|
--0-0-----0-0--0-0-----0-0---0-0-----0-0--0-0-0-0-0-0--|
-------------------------------------------------------|
-------------------------------------------------------|

 {Em}                       {Em}
-------------------------------------------------------|
-------------------------------------------------------|
------0-0----------0-0-----------0-0-------------------|
--0h2-----2-2--2-2-----2-2---2-2-----2-2--2-2-2-2-2-2--|
-------------------------------------------------------|
-------------------------------------------------------|

 {E}                        {E}
-------------------------------------------------------|
-------------------------------------------------------|
------1-1----------1-1-----------1-1-------------------|
--2-2-----2-2--2-2-----2-2---2-2-----2-2--2-2-2-2-2-2--|
-------------------------------------------------------|
-------------------------------------------------------|

 {D}                        {D}
-------------------------------------------------------|
-------------------------------------------------------|
------2-2----------2-2-----------2-2----------2-2------|
--0-0-----0-0--0-0-----0-0---0-0-----0-0--0-0-----0-0--|
-------------------------------------------------------|
-------------------------------------------------------|


verse (all the strings downtuned a whole-tone)

     The myriad choices ...    - themselves out upon ...
     {D}                        {Em         / D}
*1d -------------------------------------------------------|
*2A -------------------------------------------------------|
*3F --2-2-2-2-2-2--2-2-2-2-2-2---0-0-0-0-0-0--2-2-2-2-2-2--|
*4C --0-0-0-0-0-0--0-0-0-0-0-0---2-2-2-2-2-2--0-0-0-0-0-0--|
*5G -------------------------------------------------------|
*6D -------------------------------------------------------|

- choose                                What had he to -
 {E}                        {E}
-------------------------------------------------------|
-------------------------------------------------------|
------1-1----------1-1-----------1-1----------1-1------|
--2-2-----2-2--2-2-----2-2---2-2-----2-2--2-2-----2-2--|
-------------------------------------------------------|
-------------------------------------------------------|

- lose
 {D}                        {D}
-------------------------------------------------------|
-------------------------------------------------------|
------2-2----------2-2-----------2-2----------2-2------|
--0-0-----0-0--0-0-----0-0---0-0-----0-0--0-0-----0-0--|
-------------------------------------------------------|
-------------------------------------------------------|
Tap to rate this tab
# A B C D E F G H I J K L M N O P Q R S T U V W X Y Z