Song name
# A B C D E F G H I J K L M N O P Q R S T U V W X Y Z

Velvet Underground - Some Kinda Love tab

-------------------------------------------------------------------------------
			     Some kinda love - The Velvet Underground
-------------------------------------------------------------------------------

I noticed there wasnt a tab for this song so here it is



e|----2-2--2--2--2--2---(3)(3)(3)--------------------------------------------|
B|----3-3--3--3--3--3---3-3-3-3-3--------------------------------------------|
G|----2-2--2--2--2--2---2-4-4-4-2--------------------------------------------|
D|----0-0--0--0--0--0---0-0-0-0-0--------------------------------------------|
A|---------------------------------------------------------------------------|
E|---------------------------------------------------------------------------|

just repeat this over and over again

notes in brackets are optional (do occasionaly)

also if you bend the G string a bit when playing on the 4th fret it sounds cool
Tap to rate this tab
# A B C D E F G H I J K L M N O P Q R S T U V W X Y Z