Song name
# A B C D E F G H I J K L M N O P Q R S T U V W X Y Z

Velvett Fogg - Plastic Man tab

Help us improve GuitareTab! Take a short survey!
Artist: Velvett Fogg
Album: Velvett Fogg
Song: Plastic Man


Duration Legend
---------------
W - whole
H - half
Q - quarter
E - 8th
. - note dotted


Tablature Legend
----------------
L - tied note
/ -  slide into from below or out of upwards
~ - vibrato



Main Riff:

      Q    Q    E  Q.          Q    Q    E  Q.             
E||------------------------|------------------------|
B||------------------------|------------------------|
G||--/7----5----0--3~------|--/5----3---------------|
D||------------------------|-------------3--5~------|
A||------------------------|------------------------|
E||------------------------|------------------------|

					

Chorus:

   W                 
|-------------------|
|--2----------------|
|--2----------------|
|--2----------------|
|--0----------------|
|-------------------|


  W                   W                   W                   W                 
-------------------|--3----------------|--L----------------|--1----------------|
--L----------------|--3----------------|--L----------------|--1----------------|
--L----------------|--4----------------|--L----------------|--2----------------|
--L----------------|--5----------------|--L----------------|--3----------------|
--L----------------|--5----------------|--L----------------|--3----------------|
-------------------|--3----------------|--L----------------|--1----------------|


  W                   W                   W                   W                 
--L----------------|--3----------------|--L----------------|--1----------------|
--L----------------|--3----------------|--L----------------|--1----------------|
--L----------------|--4----------------|--L----------------|--2----------------|
--L----------------|--5----------------|--L----------------|--3----------------|
--L----------------|--5----------------|--L----------------|--3----------------|
--L----------------|--3----------------|--L----------------|--1----------------|


  W                    W                    W                  
--L----------------|--10~----------------|--L----------------||
--L----------------|---------------------|-------------------||
--L----------------|---------------------|-------------------||
--L----------------|---------------------|-------------------||
--L----------------|---------------------|-------------------||
--L----------------|---------------------|-------------------||



The heavily distorted guitar plays the following:


      Q    Q    E  E  E  E      Q    Q    E  E  E  E   
E||-------------------------|-------------------------|
B||-------------------------|-------------------------|
G||-------------------------|-------------------------|
D||-------------------------|-------------------------|
A||--/5----3-------1--1-----|--/3----1----------------|
E||-------------3-----------|-------------1--3--3-----|


Chorus:

  W                   W                   W                   W                 
-------------------|-------------------|-------------------|-------------------|
-------------------|-------------------|-------------------|-------------------|
-------------------|-------------------|-------------------|-------------------|
-------------------|-------------------|-------------------|-------------------|
--7----------------|--L----------------|--5----------------|--L----------------|
--5----------------|--L----------------|--3----------------|--L----------------|


  W                   W                   W                   W                 
-------------------|-------------------|-------------------|-------------------|
-------------------|-------------------|-------------------|-------------------|
-------------------|-------------------|-------------------|-------------------|
-------------------|-------------------|-------------------|-------------------|
--3----------------|--L----------------|--5----------------|--L----------------|
--1----------------|--L----------------|--3----------------|--L----------------|


  W                   W                   W                 
-------------------|-------------------|-------------------|
-------------------|-------------------|-------------------|
-------------------|-------------------|-------------------|
-------------------|-------------------|-------------------|
--3----------------|--L----------------|--5----------------|
--1----------------|--L----------------|-------------------|


  W                  
-------------------||
-------------------||
-------------------||
-------------------||
--L----------------||
-------------------||
Related for Plastic Man tab