Song name
# A B C D E F G H I J K L M N O P Q R S T U V W X Y Z

Vendaval - Muerte Al Alba tab

1.----------------------------------------|
2.----------------------------------------|
3.-----------6-----------------6-----(H)--|
4.--------6----4----------6------4----4---|
5.----4-4---4----4/---4-4---4------4------|
6.----------------------------------------|

1.----------------------------------------------|
2.----------------------------------------------|
3.------------6---------------------4-----------|
4.-6-6---6------4-----7---4-4---4-----4---2-4-6-|
5.-4-4-----4------4---4---2-2-----2-----2-0-2-4-|
6.----------------------------------------------|

1.------------------|
2.-----4h5-----5-7--|
3.-4h6-----6h8------|
4.------------------|
5.------------------|
6.------------------|

1.----------------------------------------------|
2.----------------------------------------------|
3.------------6---------------------4-----------|
4.-6-6---6------4-----7---4-4---4-----4---2-4-6-|
5.-4-4-----4------4---4---2-2-----2-----2-0-2-4-|
6.----------------------------------------------|



1.----------|
2.----------|
3.----------|
4.-2-2---4--|
5.-0-0---2--|
6.----------|
***
    Vuelve a llover, en tierras ya antes
1.----------------------------------------------|
2.----------------------------------------------|
3.------------6---------------------4-----------|
4.-6-6---6------4-----7---4-4---4-----4---2-4-6-|
5.-4-4-----4------4---4---2-2-----2-----2-0-2-4-|
6.----------------------------------------------|

1.------------------|
2.-----4h5-----5-7--|
3.-4h6-----6h8------|
4.------------------|
5.------------------|
6.------------------|

   Vuelve a nacer,
1.----------------------------------------------|
2.----------------------------------------------|
3.------------6---------------------4-----------|
4.-6-6---6------4-----7---4-4---4-----4---2-4-6-|
5.-4-4-----4------4---4---2-2-----2-----2-0-2-4-|
6.----------------------------------------------|


1.----------|
2.----------|
3.----------|
4.-2-2---4--|
5.-0-0---2--|
6.----------|

  Eres el agua de un pueblo con sed,
1.-----------------------------------------------------|
2.-----------------------------------------------------|
3.-----------------------------------------------------|
4.-2---2---4---2---1---2---1---6-6h7-7h9-11-11-9-9-7---|
5.-0-0---0---0---0---0---0-----4---------------------0-|
6.-----------------------------------------------------|

1.-----------------------------------------------------|
2.-----------------------------------------------------|
3.-----9---11---9---8---9---8--------------------------|
4.-7-7---7----7---7---7---7----------------------------|
5.---------------------------------------------------6-|
6.-----------------------------4-4---4-4-4---4-4-4-4-4-|
Repetimos todo desde asteriscos
(estribillo)
      Muerte al alba....
1.-------------------------------------------------------|
2.-------------------------------------------------------|
3.-------------------------------------------------------|
4.-6---4---6---4---2---2-----2-------2---------2-------2-|
5.-4---2---4---2---0---0-0-0---0-0-0---0-0-0-0---0-0-0---|
6.-------------------------------------------------------|


1.-------------------------------------------------------|
2.-------------------------------------------------------|
3.-------------------------------------------------------|
4.-----2---2---2-2-2---2-2-2---2-2-2---4---4-4-4---4-4-4-|
5.-0-0-----0---0-0-0---0-0-0---0-0-0---2---2-2-2---2-2-2-|
6.-------------------------------------------------------|

1.------------------------------------------------|
2.------------------------------------------------|
3.------------------------------------------------|
4.-4-4-4---6---6-6-6---6-6-6---6-6-6----9-4-2-----|
5.-2-2-2---4---4-4-4---4-4-4---4-4-4----7-2-0---6-|
6.----------------------------------------------4-|

(2:47)
1.-------------------------------------------------|
2.-------------------------------------------------|
3.-------------------------------------------------|
4.-6---------6-4-----6---------7-6-4---6---------7-|
5.-4---4-6-7-----7---4---4-6-7---------4---4-6-7---|
6.-------------------------------------------------|

1.--------------------------|
2.--------------------------|
3.--------------------------|
4.-6-4---6-4-----4-------6--|
5.-----7-----7-6---7-6---4--|
6.--------------------------|

1.-------------------------------------------------|
2.-------------------------------------------------|
3.-------------------------------------------------|
4.-6---------6-4-----6---------7-6-4---6---------7-|
5.-4---4-6-7-----7---4---4-6-7---------4---4-6-7---|
6.-------------------------------------------------|

1.-------------------------------------------|
2.-------------------------------------------|
3.-------------------------------------------|
4.-6-4---6-4-----4-------4---------4-2-----4-|
5.-----7-----7-6---7-6---2---2-4-6-----6---2-|
6.-------------------------------------------|

1.-----------------------------------------------|
2.-----------------------------------------------|
3.-----------------------------------------------|
4.-------6-4-2---4---------6-4-2---4-2-----2-----|
5.-2-4-6---------2---2-4-6-------6-----6-4---6-4-|
6.-----------------------------------------------|


1.----------------------------------------------------|
2.--------------------------------------------5-7-5-4-|
3.--------------------------8-11-9-8---/5-6-8---------|
4.--------1-4-2-1---/7-9-11---------------------------|
5.-0-2-4----------------------------------------------|
6.----------------------------------------------------|

1.------------------/11-11-11-9-11-9-8-9-|
2.---------8-10-8-7----------------------|
3.-/8-9-11-------------------------------|
4.---------------------------------------|
5.---------------------------------------|
6.---------------------------------------|

(guitarra 1)  * * * *
   Vuelvo a caer
1.-----------------------------------------------------|
2.-----------5--------------------5--------------------|
3.------6-------6-6----------6------6-6--------4-------|
4.---6----6---------6-----7----7--------7----4---4-----|
5.-4-------------------4-------------------2-----------|
6.-----------------------------------------------------|


1.---------------------------------------------------|
2.-4--------------------------------5----------------|
3.---4-----------------4--------6-----6-6--------2---|
4.-----------4-------4---4----6---6-------6----2---2-|
5.---------4---4---2--------4----------------0-------|
6.-------2-------------------------------------------|

1.-----------|     Se repite desde * * * * y
2.-----------|
3.------4----|
4.----4---4--|
5.-2---------|
6.-----------|

1.--------------------------------------------------|
2.--------------------------------------------------|
3.-----2-------2-------2--------6-------6-------6---|
4.---2---2---2---2---2---2----6---6---6---6---6---6-|
5.-0-------0-------0--------4-------4-------4-------|
6.--------------------------------------------------|

1.---------------------------------------------------|
2.---------------------------------------------------|
3.-----2--------2------------------------------------|
4.---2---2----2---2------4-------4-------6-------6---|
5.-0--------0----------4---4---4---4---6---6---6---6-|
6.------------------2--------2-------4-------4-------|



(guitarra 2)
1.------------------------5-5-5-4-------------|
2.-5---5-4-------------------------7---10-7-9-|
3.---------6-8---6-4--------------------------|
4.--------------------------------------------|
5.--------------------------------------------|
6.--------------------------------------------|

1.------------------------------------------------|
2.---4-5-4----/4------------10-10-10-9-9-9-7-7-7--|
3.-6-------6------6-4-----------------------------|
4.------------------------------------------------|
5.------------------------------------------------|
6.------------------------------------------------|

1.------------------------------------------------|
2.-5-7-5-4----------------------------------------|
3.---------6--------6---8-9-9---9-9-8---9-8-6-6---|
4.--------------7-7-------------------------------|
5.------------------------------------------------|
6.------------------------------------------------|

1.-5-4--------------------------------------------|
2.------7-5-4-------------------------------------|
3.------------4---/6-6-----6----------------------|
4.-----------------------7---7---4-4h6-7-6--------|
5.------------------------------------------------|
6.------------------------------------------------|

1.-/12---12-12-11-----------------------------------|
2.----------------14-/17-17---17-16---16-17-17---17-|
3.--------------------------------------------------|
4.--------------------------------------------------|
5.--------------------------------------------------|
6.--------------------------------------------------|

1.--------------------------------------------------|
2.-19---19-19---19-17-16---16-17-17---16---16-17-14-|
3.--------------------------------------------------|
4.--------------------------------------------------|
5.--------------------------------------------------|
6.--------------------------------------------------|

1.-------12-----------14------------|
2.----14----14-----16----16---12-14-|
3.-14-----------16------------------|
4.----------------------------------|
5.----------------------------------|
6.----------------------------------|

(4:34)(solo)
1.----------------------------------------------------|
2.-14---17-16-14--------------------------------------|
3.---------------16-14-13-----------------------------|
4.------------------------16-14-13---11---11-14-13-11-|
5.----------------------------------------------------|
6.----------------------------------------------------|

1.------------------------------------------------|
2.------------------------------------------------|
3.------------------------------------------------|
4.-11-------------1-2---2-4-2-1---2-4---4-6-4-2---|
5.-----16/-----4--------------------------------6-|
6.------------------------------------------------|


1.------------------------------------------|
2.-----------------------4h5-----5-7-7-/8-8-|
3.-4-6-8-6-4-4h6-6---4h6-----6h8------------|
4.------------------------------------------|
5.------------------------------------------|
6.------------------------------------------|

1.------------------------------------------------|
2.-14-17-14----13-16-13-16-13---13----------------|
3.----------16----------------16---16-14-16-14----|
4.---------------------------------------------16-|
5.------------------------------------------------|
6.------------------------------------------------|

1.------------------------------------------------|
2.------------------------------------------------|
3.-14---------------------------------------------|
4.----14----------------------14-14-14---16-16-16-|
5.--------12-12-12---16-16-16---------------------|
6.------------------------------------------------|

1.------------------------------------------------------|
2.-19---17-16----------------------------------16h17/19-|
3.------------18---20-18-16---16-18-18---16h18----------|
4.------------------------------------------------------|
5.------------------------------------------------------|
6.------------------------------------------------------|

1.-------------------------------------------------|
2.-16-14----14-17-14-16-14----14-17-14-16-14----14-|
3.-------14----------------14----------------14----|
4.-------------------------------------------------|
5.-------------------------------------------------|
6.-------------------------------------------------|

1.----------------------------------------------|
2.-16-14----14-17-14-16-14----14-17-14-16-14----|
3.-------14----------------14----------------14-|
4.----------------------------------------------|
5.----------------------------------------------|
6.----------------------------------------------|

1.----------------------------------------------|
2.-21-17----17-21-17-19-17----17-21-17-19-17----|
3.-------18----------------18----------------18-|
4.----------------------------------------------|
5.----------------------------------------------|
6.----------------------------------------------|

1.---------------------------------------------|
2.-17-22-17-21-17---17-21-17-19-17----17-21-17-|
3.---------------18----------------18----------|
4.---------------------------------------------|
5.---------------------------------------------|
6.---------------------------------------------|

1.------------------------------------------------|
2.-19-17----17-19-17-21---16-14----14-17-14-16-14-|
3.-------18---------------------14----------------|
4.------------------------------------------------|
5.------------------------------------------------|
6.------------------------------------------------|

1.----------------------------------------------|
2.----14-17-14-16-14----14-16-14----14-17-14-16-|
3.-14----------------14----------14-------------|
4.----------------------------------------------|
5.----------------------------------------------|
6.----------------------------------------------|

1.--------------------------------------------------|
2.-14----14-17-14-16-14-----------------------------|
3.----14-----------------14-14-14-16-16-16-18-18-18-|
4.--------------------------------------------------|
5.--------------------------------------------------|
6.--------------------------------------------------|

1.--------------------21---|
2.-16-16-16-17-17-17-------|
3.-------------------------|
4.-------------------------|
5.-------------------------|
6.-------------------------|
http://www.vendaval.net/
                                 perchintabs.blogspot.com
Tap to rate this tab
 
# A B C D E F G H I J K L M N O P Q R S T U V W X Y Z