Song name
# A B C D E F G H I J K L M N O P Q R S T U V W X Y Z

Vendetta Red - Body And The Blood tab

Title: The Body and The blood
Artist: Vendetta Red
Album: Sisters Of The Red Death
Tuning: Drop D (DADGBE)
Tabbed by: stringping

--------
Guitar 1
--------

Intro
e|----------------------------------------------------------------------|
B|----------------------------------------------------------------------|
G|----------------------------------------------------------------------|
D|----------------------------------------------------------------------|
A|-0-4-2-0-5-4-2-4-0-4-2-0-5-4-5-7--------------------------------------|
E|-0-4-2-0-5-4-2-4-0-4-2-0-5-4-5-7--------------------------------------|

End of Intro
e|----------------------------------------------------------------------|
B|----------------------------------------------------------------------|
G|----------------------------------------------------------------------|
D|-0------------0--2--5-------------------------------------------------|
A|-0----4-5-7---0--2--5-------------------------------------------------|
E|-0~---4-5-7s--0--2--5~------------------------------------------------|

Verse
e|----------------------------------------------------------------------|
B|----------------------------------------------------------------------|
G|----------------------------------------------------------------------|
D|----------------------------------------------------------------------|
A|----------------------------------------------------------------------|
E|-0-0-0-0-0-0-0-0-0-0-0-0-0-0-0-0-2-2-2-2-2-2-2-2-2-5-5-5-5-5-5-5-5----|
PM . . . . . . . . . . . . . . . . . . . . . . . . . . . . . . . . .

Chorus
e|----------------------------------------------------------------------|
B|----------------------------------------------------------------------|
G|----------------------------------------------------------------------|
D|-0----0----2----5-----------------------------------------------------|
A|-0----0----2----5-----------------------------------------------------|
E|-0----0----2----5-----------------------------------------------------|
Strum

End of Chorus
e|----------------------------------------------------------------------|
B|----------------------------------------------------------------------|
G|------2---------------------------------------------------------------|
D|-0----0----------0--2--5----------------------------------------------|
A|-0----0-0-4-5-7--0--2--5----------------------------------------------|
E|-0------0-4-5-7s-0--2--5~---------------------------------------------|

Bridge
e|----------------------------------------------------------------------|
B|----------------------------------------------------------------------|
G|----------------------------------------------------------------------|
D|-7-8-9----7----5----5--5-4-5-2-4-9----7----5----5--5-5--5-5-----------|
A|-7-8-9----7----5----5--5-4-5-2-4-9----7----5----5--5-5--5-5-----------|
E|-7-8-9----7----5----5--5-4-5-2-4-9----7----5----5--5-5--5-5-----------|
Strum                                                ^ ^  ^ ^Staccato

Bridge contd.
e|----------------------------------------------------------------------|
B|----------------------------------------------------------------------|
G|----------------------------------------------------------------------|
D|-7-8-9----7----5----5--5-4-5-2-4-2----2--5-4-2-4-7----7----0----------|
A|-7-8-9----7----5----5--5-4-5-2-4-2----2--5-4-2-4-7----7----0----------|
E|-7-8-9----7----5----5--5-4-5-2-4-2----2--5-4-2-4-7----7----0~---------|
Strum

Breakdown
e|----------------------------------------------------------------------|
B|----------------------------------------------------------------------|
G|----------------------------------------------------------------------|
D|----------------------------------------------------------------------|
A|----------------------------------------------------------------------|
E|-0-0-0-0-0-0-0-0-0-0-0-0-0-0-0-0-2-2-2-2-2-2-2-2-2-5-5-5-5-5-5-5-5----|
PM . . . . . . . . . . . . . . . . . . . . . . . . . . . . . . . . .

Outro
e|----------------------------------------------------------------------|
B|----------------------------------------------------------------------|
G|----------------------------------------------------------------------|
D|----------------------------------------------------------------------|
A|-0-4-2-0-5-4-2-4-0-4-2-0-5-4-5-7--------------------------------------|
E|-0-4-2-0-5-4-2-4-0-4-2-0-5-4-5-7--------------------------------------|

--------
Guitar 2
--------

Intro
e|----------------------------------------------------------------------|
B|----------------------------------------------------------------------|
G|----------------------------------------------------------------------|
D|-0-4-2-0-5-4-2-4-0-4-2-0-5-4-5-7--------------------------------------|
A|-0-4-2-0-5-4-2-4-0-4-2-0-5-4-5-7--------------------------------------|
E|-0-4-2-0-5-4-2-4-0-4-2-0-5-4-5-7--------------------------------------|

End of intro
e|----------------------------------------------------------------------|
B|----------------------------------------------------------------------|
G|-----7----11-12-14----------------------------------------------------|
D|-0---x----x--x--x-----2--5--------------------------------------------|
A|-0---5~-0-9--10-12-0--2--5--------------------------------------------|
E|-0~-----0----------0--2--5~-------------------------------------------|

Verse
e|----------0----3------------------------------------------------------|
B|-3--------0----3------------------------------------------------------|
G|-2--------0----0------------------------------------------------------|
D|-0--------2----0------------------------------------------------------|
A|----------------------------------------------------------------------|
E|----------------------------------------------------------------------|
Let ring

Pre-Chorus
e|----------------------------------------------------------------------|
B|-12--8----------------------------------------------------------------|
G|--9--0----------------------------------------------------------------|
D|--0--x----------------------------------------------------------------|
A|--x--x----------------------------------------------------------------|
E|----------------------------------------------------------------------|

Chorus
e|----------------------------------------------------------------------|
B|----------------------------------------------------------------------|
G|----7-----7-----9-----16----------------------------------------------|
D|-0--x--0--x--2--x--5--x-----------------------------------------------|
A|-0--5--0--5--2--7--5--14----------------------------------------------|
E|-0-----0-----2-----5--------------------------------------------------|
Strum

End of Chorus
e|----------------------------------------------------------------------|
B|----------------------------------------------------------------------|
G|-----7----11-12-14----------------------------------------------------|
D|-0---x----x--x--x-----2--5--------------------------------------------|
A|-0---5~-0-9--10-12-0--2--5--------------------------------------------|
E|-0~-----0----------0--2--5~-------------------------------------------|

Bridge
e|----------------------------------------------------------------------|
B|----------------------------------------------------------------------|
G|----------------------------------------------------------------------|
D|-7-8-9----7----5----5--5-4-5-2-4-9----7----5----5--5-5--5-5-----------|
A|-7-8-9----7----5----5--5-4-5-2-4-9----7----5----5--5-5--5-5-----------|
E|-7-8-9----7----5----5--5-4-5-2-4-9----7----5----5--5-5--5-5-----------|
Strum                                                ^ ^  ^ ^Staccato

Bridge Contd.
e|----------------------------------------------------------------------|
B|----------------------------------------------------------------------|
G|----------------------------------------------------------------------|
D|-7-8-9----7----5----5--5-4-5-2-4-2----2--5-4-2-4-7----7----0----------|
A|-7-8-9----7----5----5--5-4-5-2-4-2----2--5-4-2-4-7----7----0----------|
E|-7-8-9----7----5----5--5-4-5-2-4-2----2--5-4-2-4-7----7----0~---------|
Strum

Breakdown
e|----------0----3------------------------------------------------------|
B|-3--------0----3------------------------------------------------------|
G|-2--------0----0------------------------------------------------------|
D|-0--------2----0------------------------------------------------------|
A|----------------------------------------------------------------------|
E|----------------------------------------------------------------------|
Let ring

Outro
e|----------------------------------------------------------------------|
B|----------------------------------------------------------------------|
G|----------------------------------------------------------------------|
D|-0-4-2-0-5-4-2-4-0-4-2-0-5-4-5-7--------------------------------------|
A|-0-4-2-0-5-4-2-4-0-4-2-0-5-4-5-7--------------------------------------|
E|-0-4-2-0-5-4-2-4-0-4-2-0-5-4-5-7--------------------------------------|

Thats all folks! Enjoy, working on Joyless Euphoria next
Tap to rate this tab
# A B C D E F G H I J K L M N O P Q R S T U V W X Y Z