Song name
# A B C D E F G H I J K L M N O P Q R S T U V W X Y Z

Vendetta Red - Banshee Ballet tab

  Drop D Tuning (Dadgbe)

Band-Vendetta Red
Song- The Banshee Ballet

(Intro)
Guitar I (0:00-0:20)
E------------------------------------------------------------------------|
B------------------------------------------------------------------------|
G------------------------------------------------------------------------|
D------------------------------------------------------------------------|
A-10-9-7-0-9 (X2)-------(The third time do)--5-7-10-9--------------------|
D--0-0-0-0-0---------------------------------0-0-0--0--------------------|
  ...................................................

     
E------------------------------------------------------------------------|
B------------------------------------------------------------------------|
G------------------------------------------------------------------------|
D------------------------------------------------------------------------|
A-10-9-7-0-9--(X2)------(The third time do)---7-9-7-9--------------------|
D--0-0-0-0-0----------------------------------0-0-0-0--------------------|
  ...................................................
Continue 

Chorus
Guitar 2   (0:21-0:33)
E------------------------------------------------------------------------|
B------------------------------------------------------------------------|
G-14------------12-------------------------------------------------------|
D--X--X Alot-----X--X Alot-----------------------------------------------|
A-12------------10-------------------------------------------------------|
D------------------------------------------------------------------------|

Guitar 1
E------------------------------------------------------------------------|
B------------------------------------------------------------------------|
G--12-9---7-11--------------------7-9-12-11------------------------------|
D---x-x---x--x--(X2)3rd time do---x-x--x--x------------------------------|
A--10-7---5--9--------------------5-7-10--9------------------------------|
D------------------------------------------------------------------------|

E------------------------------------------------------------------------|
B------------------------------------------------------------------------|
G--12-9---7-11--------------------9-11-9-7-------------------------------|
D---x-x---x--x--(X2)3rd time do---x-x--x-x-------------------------------|
A--10-7---5--9--------------------7-9--7-5-------------------------------|
D------------------------------------------------------------------------|

Post Chorus
Guitar I    (0:34-37)
E------------------------------------------------------------------------|
B------------------------------------------------------------------------|
G------------------------------------------------------------------------|
D--000-xx-000------------------------------------------------------------|
A--000-xx-000------------------------------------------------------------|
D--000-xx-000------------------------------------------------------------|

Guitar 2
E------------------------------------------------------------------------|
B------------------------------------------------------------------------|
G------------------------------------------------------------------------|
D--000-xx-000------------------------------------------------------------|
A--000-xx-000---4540-----------------------------------------------------|
D--000-xx-000---4540-----------------------------------------------------|

Bridge
Guitar I  (1:27-1:48)
E------------------------------------------------------------------------|
B------------------------------------------------------------------------|
G------------------------------------------------------------------------|
D--000-xx-000---------------555-xx-555-xx--5-7---------------------------|x2
A--000-xx-000---4540--X2----555-xx-555-xx--5-7---------------------------|
D--000-xx-000---4540--------555-xx-555-xx--5-7---------------------------|



E------------------------------------------------------------------------|
B------------------------------------------------------------------------|
G------------------------------------------------------------------------|
D-000-xx-04-5-7----------------------------------------------------------|
A-000-xx-04-5-7----------------------------------------------------------|
D-000-xx-04-5-7----------------------------------------------------------|

Bridge Continued
Guitar I           (1:48-2:00)
E------------------------------------------------------------------------|
B------------------------------------------------------------------------|
G------------------------------------------------------------------------|
D------------------------------------------------------------------------|
A-10-9-7-0-9 (X2)-------(The third time do)--5-7-10-9--------------------|
D--0-0-0-0-0---------------------------------0-0-0--0--------------------|
  ...................................................

Guitar 2
E------------------------------------------------------------------------|
B------------------------------------------------------------------------|
G------------------------------------------------------------------------|
D---------------------------------------------0-------0------------------|
A---------------------------------------------0-------0------------------|
D---------------------------------------------0-------0------------------|

Guitar 1
E------------------------------------------------------------------------|
B------------------------------------------------------------------------|
G------------------------------------------------------------------------|
D------------------------------------------------------------------------|
A-10-9-7-0-9--(X2)------(The third time do)---7-9-7-9--------------------|
D--0-0-0-0-0----------------------------------0-0-0-0--------------------|
  ...................................................


Guitar 2
E------------------------------------------------------------------------|
B------------------------------------------------------------------------|
G------------------------------------------------------------------00----|
D---------------------------------------------4-5-4---0------------00----|
A---------------------------------------------4-5-4---0------------00----|
D---------------------------------------------4-5-4---0------------00----|


Order of song 

Intro
Chorus
Postchorus
Verse I(Intro)
Chorus
Bridge
Bridge Continued
Chorus


Palm Mute .....
Mute note XXX
Bend  (B)
Slide up >
Slide down <
Tap to rate this tab
# A B C D E F G H I J K L M N O P Q R S T U V W X Y Z