Song name
# A B C D E F G H I J K L M N O P Q R S T U V W X Y Z

Vendetta - Wedding Theme tab

Hi guys.My name is Haziq.♥Vendetta♠ is my band.I'm from others band named
Rhythm guitarist in this band,but I made this band.Anyway,here's the wedding theme.You
need organs or piano to play with it.If you're friends are getting married,be sure to 
this song.This song is repeatable.Just so you know.Peace.

Lead:
E|------------------------------------------------------------|
B|------------------------------------------------------------|
G|--2--7-7-7~------2--9--6-7~---2--7-11-14-11-9h11p9-9-8-9-11~|
D|------------------------------------------------------------|
A|------------------------------------------------------------|
E|------------------------------------------------------------|

Rhythm:
E|------------------------------------------------------------|
B|------------------------------------------------------------|
G|------------------------------------------------------------|
D|--2--7-7-7~------2--9--6-7~---2--7-11-14-11-99-----9-8-9-11~|
A|--2--7-7-7~------2--9--6-7~---2--7-11-14-11-99-----9-8-9-11~|
E|--0--5-5-5~------0--7--4-5~---0--5-9--12-9--77-----7-6-7-9~-|

By the way,this's my first tab.So,if you have any questions or corrections,please let me
as soon as possible.chalos~ :D
Tap to rate this tab
# A B C D E F G H I J K L M N O P Q R S T U V W X Y Z