Song name
# A B C D E F G H I J K L M N O P Q R S T U V W X Y Z

Venerea - Boring Boring Bored tab

Band: Venerea
Song: (Boring) Boring (Bored)
Album: Losing Weight, Gaining Ground
Website: http://www.badtasterecords.se/bands.asp?id=42


Notes:
Rhythm Guitar (Andreas Flygare, playing a Gibson SG Special Vintage)
Very Easy
100% Correct
Constant Downstrokes Except For Refrain 2




			 Verse 1 
	  "I'm bored..I don't know what to do.."

 8 times	                      
E|-----------------|-----------------| 
B|-----------------|-----------------|	
G|-----------------|-2-2-2-2-4-4-4-4-| 	
D|-2-2-2-2-2-2-2-2-|-2-2-2-2-4-4-4-4-| 	 
A|-2-2-2-2-2-2-2-2-|-0-0-0-0-2-2-2-2-|  
E|-0-0-0-0-0-0-0-0-|-----------------|   
   ^ ^ ^ ^ ^ ^ ^ ^   ^ ^ ^ ^ ^ ^ ^ ^  

 9th time
E|-----------------|-----------------|
B|-----------------|-----------------|			
G|-----------------|-2-2-2-2-4.------|				
D|-2-2-2-2-2-2-2-2-|-2-2-2-2-4.------|		 	
A|-2-2-2-2-2-2-2-2-|-0-0-0-0-2.------|
E|-0-0-0-0-0-0-0-0-|-----------------|
   ^ ^ ^ ^ ^ ^ ^ ^   ^ ^ ^ ^


			Refrain 1
          "But if I start a rock'n'roll band.."
 8 times	               
E|-----------------|-----------------|
B|-----------------|-----------------|
G|-----------------|-5-5-5-5-7-7-7-7-|					
D|-5-5-5-5-5-5-5-5-|-5-5-5-5-7-7-7-7-|		      			
A|-5-5-5-5-5-5-5-5-|-3-3-3-3-5-5-5-5-|
E|-3-3-3-3-3-3-3-3-|-----------------|


			 Verse 2
                "But I'm bored easily.."
 8 times	                         9th time end on
E|-----------------|-----------------|   |-----------------|
B|-----------------|-----------------|   |-----------------|
G|---------------*-|-5-5-5-5-7-7-7-7-|   |-----------------|		
D|-5-5-5-5-5-5-5-5-|-5-5-5-5-7-7-7-7-|   |-8~~~~~~~~~~~~~~-|	  	
A|-5-5-5-5-5-5-5-5-|-3-3-3-3-5-5-5-5-|   |-8~~~~~~~~~~~~~~-|
E|-3-3-3-3-3-3-3-3-|-----------------|   |-6~~~~~~~~~~~~~~-|
   ^ ^ ^ ^ ^ ^ ^ ^   ^ ^ ^ ^ ^ ^ ^ ^

			Refrain 2
           "But if I start a punk rock band.."
 7 times, double speed	               
E|-----------------|---------------------|
B|-----------------|---------------------|
G|-----------------|-8-8-8-8-10-10-10-10-|		
D|-8-8-8-8-8-8-8-8-|-8-8-8-8-10-10-10-10-|	      			
A|-8-8-8-8-8-8-8-8-|-6-6-6-6--8--8--8--8-|
E|-6-6-6-6-6-6-6-6-|---------------------|


			  Outro
"But the only problem is that I'm just so boring.."

 3 times, normal speed                   4th time end on
E|-----------------|-----------------|   |-----------------|
B|-----------------|-----------------|   |-----------------|
G|-----------------|-2-2-2-2-4-4-4-4-|   |-----------------|		
D|-2-2-2-2-2-2-2-2-|-2-2-2-2-4-4-4-4-|   |-2~~~~~~~~~~~~2.-|	 	     
A|-2-2-2-2-2-2-2-2-|-0-0-0-0-2-2-2-2-|   |-2~~~~~~~~~~~~2.-|
E|-0-0-0-0-0-0-0-0-|-----------------|   |-0~~~~~~~~~~~~0.-|
   ^ ^ ^ ^ ^ ^ ^ ^   ^ ^ ^ ^ ^ ^ ^ ^      

^ = Palm Mute
. = Short Note
* = at the very first time Anden plays two 1/16 notes here instead of the usual 1/8 
~ = Let Ring
Tap to rate this tab
 
# A B C D E F G H I J K L M N O P Q R S T U V W X Y Z