Guitaretab - guitar tabs
Song name
# A B C D E F G H I J K L M N O P Q R S T U V W X Y Z

Vennaskond - Uimane Ja Vsinud tab

-------------------------------------------------------------------------------
 Vennaskond - Uimane ja väsinud
-------------------------------------------------------------------------------

Tuning: regular
[ Tab from: http://www.guitaretab.com/v/vennaskond/53832.html ]
Intro, verse and chorus:
e|-------------------------------------------------------------------------------------------------------|
B|-------------------------------------------------------------------------------------------------------|
G|--3-3-3-3-----------5-5-5----3-3-3-3-----------5-5-5-5--3-3-3-3-----------5-5-5----3-3-3-3-------------|
D|--3-3-3-3--3-3-3-3--5-5-5-5--3-3-3-3--3-3-3-3--5-5-5-5--3-3-3-3--3-3-3-3--5-5-5-5--3-3-3-3--3-3-3-3-5--|
A|--1-1-1-1--3-3-3-3--3-3-3-5--1-1-1-1--3-3-3-3--3-3-3-3--1-1-1-1--3-3-3-3--3-3-3-5--1-1-1-1--3-3-3-3-5--|
E|-----------1-1-1-1--------3-----------1-1-1-1--------------------1-1-1-1--------3-----------1-1-1-1-3--|

That's actually it, dont stop playing until the singer stops singing.

Mods: Would be nice if you could delete this
Related for Uimane Ja Vsinud tab
Uimane Ja Vsinud chords by Vennaskond