Guitaretab - guitar tabs
Song name
# A B C D E F G H I J K L M N O P Q R S T U V W X Y Z

Venom - Buried Alive tab

|----------------------------------------------------------7bp7----------|
|-----------------------------------------------5--7-7--5----------------|
|---------------------2-4--4bpo2----1--4slide6---------------------------|
|-----2--3-3-2---2h4-------------3---------------------------------------|
|-2h4--------------------------------------------------------------------|
|------------------------------------------------------------------------|
[ Tab from: http://www.guitaretab.com/v/venom/129623.html ]
|-5h7po5-----------------------------------------------------------------|
|--------h7--5h7p05------------------------------------------------------|
|-------------------h6-4h6po4-----2-------------------2---4---4bpo2---2--|
|------------------------------4--------4---2---2h4-----------------4----|
|------------------------------------------------------------------------|
|------------------------------------------------------------------------|


|--------------5-------------2-------------------------------------------|
|------------------------------------------------------------------------|
|--4bkeepbent----p4dropbend------4--2--4---2po4po4po4po4-----------------|
|----------------------------------------------------------4-------------|
|------------------------------------------------------------------------|
|------------------------------------------------------------------------|


I have never written tab before, but this is an awsome song and I have not seen a solo
for it.  I believe this is correct.  Listen to the song to get the picking and bending
This is not the entire solo, so you are on your own from the end of this tab unless I 
figure the rest out.  Have fun.
Related for Buried Alive tab
Advertisement will be closed in 10 seconds