Song name
# A B C D E F G H I J K L M N O P Q R S T U V W X Y Z

Venom - Armageddon tab

Guitar Legend:

[2^]= full bend with PINCH HARMONIC
2b= slight bend
( )= palm mute
/\= slide up or down


Riff 1:
|-----------------------------------------------------------|
|-----------------------------------------------------------|
|-----------------------------------------------------------|
|-2-2------3-----3-1--2-2------3-1----1--2-2------3-----3-1-|
|-2-2--1-2-3-1-2-3-1--2-2--1-2-3-1----1--2-2--1-2-3-1-2-3-1-|
|-0-0-----------------0-0----------2b----0-0----------------|

------------------------------------------------------------|
------------------------------------------------------------|
------------------------------------------------------------|
-2-2------3-1-------2-2------3-----3-1--2-2------3-1----1---|
-2-2--1-2-3-1-------2-2--1-2-3-1-2-3-1--2-2--1-2-3-1----1---|
-0-0----------2b-1--0-0-----------------0-0----------2b-----|

------------------------------------------------------------|
------------------------------------------------------------|
------------------------------------------------------------|
-2-2------3-----3-1--2-2------------------------------------|
-2-2--1-2-3-1-2-3-1--2-2-------9\---------------------------|
-0-0-----------------0-0-------7\---------------------------|


Riff 2:
|--------------------------------------------------------------|
|--------------------------------------------------------------|
|--------------------------------------------------------------|
|-2--5--4-------[2^]-------------------------------------------|
|-2--5--4------------------------------------------------------|
|-0--3--2--(0-0)-----------------------------------------------|


Riff 3:
|--------------------------------------------------------------|
|--------------------------------------------------------------|
|--------------------------------------------------------------|
|--------------------------------------------------------------|
|-2--5--4------------- 3---------------------------------------|
|-0--3--2--(3-3-3-3-2)-1---------------------------------------|


Riff 4:
|--------------------------------------------------------------|
|--------------------------------------------------------------|
|--------------------------------------------------------------|
|--------------------------------------------------------------|
|-(2-2-2-2-2-2-2-2-2-2-2-2-2-2-2-2-2-2-2-2-2-2-2-2-2-2-2-2)----|
|-(0-0-0-0-0-0-0-0-0-0-0-0-0-0-0-0-0-0-0-0-0-0-0-0-0-0-0-0)----|


Riff 5:
|-------------------------------------------------------------|
|-------------------------------------------------------------|
|-------------------------------------------------------------|
|----9--7--9-12--9--------------------------------------------|
|-2--7--5--7-10--7-(2-2-2-2-2-2)------------------------------|
|-0----------------(0-0-0-0-0-0)------------------------------|

--------------------------------------------------------------|
--------------------------------------------------------------|
--------------------------------------------------------------|
----9--7--9-12--9---------- 9\--------------------------------|
-2--7--5--7-10--7-(2-2-2-2)-7\--------------------------------|
-0----------------(0-0-0-0)-----------------------------------|
Tap to rate this tab
# A B C D E F G H I J K L M N O P Q R S T U V W X Y Z