Song name
# A B C D E F G H I J K L M N O P Q R S T U V W X Y Z

Venom - Domus Mundi tab

-------------------------------------------------------------------------------
			    DOMUS MUNDI - VENOM
-------------------------------------------------------------------------------
Tabbed by:DUANE
Email:ELSYCKOMATON@YAHOO.COM

Tuning:D G C F A D 


INTRO
D|----------------------------------------------------|
G|----------------------------------------------------|
C|-9--9--9--9--9--9---9-9-9-9-------------------------|
F|-9--9--9--9--9--9---9-9-9-9-------------------------|
A|-7--7--7--7--7--7---7-7-7-7-------------------------|
D|----------------------------------------------------|

00:20
D|----------------------------------------------------|
G|----------------------------------------------------|
C|-7\9--9---7\9-9-9/7---------------------------------|
F|-7\9--9---7\9-9-9/7---------------------------------|
A|-5\7--7---5\7-7-7/5---------------------------------|
D|----------------------------------------------------|

00:51
D|----------------------------------------------------|
G|----------------------------------------------------|
C|-5-5-5-6-5-5-5-5-5-5-5-6-5-5-5-5--------------------|
F|-5-5-5-6-5-5-5-5-5-5-5-6-5-5-5-5--------------------|
A|-3-3-3-4-3-3-3-3-3-3-3-4-3-3-3-3--------------------|
D|----------------------------------------------------|X2

01:09
D|----------------------------------------------------|
G|----------------------------------------------------|
C|-7\9--9---7\9-9-9/7---------------------------------|
F|-7\9--9---7\9-9-9/7---------------------------------|
A|-5\7--7---5\7-7-7/5---------------------------------|
D|----------------------------------------------------|

01:40
D|----------------------------------------------------|
G|----------------------------------------------------|
C|-5-5-5-6-5-5-5-5-5-5-5-6-5-5-5-5--------------------|
F|-5-5-5-6-5-5-5-5-5-5-5-6-5-5-5-5--------------------|
A|-3-3-3-4-3-3-3-3-3-3-3-4-3-3-3-3--------------------|
D|----------------------------------------------------|X2

02:56
D|----------------------------------------------------|
G|----------------------------------------------------|
C|-5-5-5-6-5-5-5-5-5-5-5-6-5-5-5-5--------------------|
F|-5-5-5-6-5-5-5-5-5-5-5-6-5-5-5-5--------------------|
A|-3-3-3-4-3-3-3-3-3-3-3-4-3-3-3-3--------------------|
D|----------------------------------------------------|X2

03:12
D|----------------------------------------------------|
G|----------------------------------------------------|
C|-7\9--9---7\9-9-9/7---------------------------------|
F|-7\9--9---7\9-9-9/7---------------------------------|
A|-5\7--7---5\7-7-7/5---------------------------------|
D|----------------------------------------------------|

03:43
D|----------------------------------------------------|
G|----------------------------------------------------|
C|-9--9--9--9-----------------------------------------|
F|-9--9--9--9-----------------------------------------|
A|-7--7--7--7-----------------------------------------|
D|----------------------------------------------------|

| /  slide up
| \  slide down
| h  hammer-on
| p  pull-off
| ~  vibrato
| +  harmonic
| x  Mute note
===============================================================================
Tap to rate this tab
# A B C D E F G H I J K L M N O P Q R S T U V W X Y Z