Song name
# A B C D E F G H I J K L M N O P Q R S T U V W X Y Z

Venom - Welcome To Hell tab

              Welcome To Hell                


                                        Venom
Chitarra



      W                   W                 
D#||-------------------|-------------------|
A#||-------------------|-------------------|
F#||-------------------|-------------------|
C#||-------------------|-------------------|
G#||-------------------|-------------------|
D#||-------------------|-------------------|


  W                   W                 
-------------------|-------------------|
-------------------|-------------------|
-------------------|-------------------|
-------------------|-------------------|
-------------------|-------------------|
-------------------|-------------------|


    PM PM PM PM PM PM PM PM  
    E  E  E  E  E  E  E  E   
|---------------------------|
|---------------------------|
|*--------------------------|
|*--0--0--0--0--0--0--0--0--|
|---0--0--0--0--0--0--0--0--|
|---------------------------|


  PM PM PM PM PM PM PM PM  
  E  E  E  E  E  E  E  E   
--------------------------|
--------------------------|
--------------------------|
--0--0--0--0--0--0--0--0--|
--0--0--0--0--0--0--0--0--|
--------------------------|


  PM PM PM PM PM PM PM PM  
  E  E  E  E  E  E  E  E   
--------------------------|
--------------------------|
--------------------------|
--0--0--0--0--0--0--0--0--|
--0--0--0--0--0--0--0--0--|
--------------------------|


  PM PM PM PM PM PM PM PM    
  E  E  E  E  E  E  E  E     
---------------------------||
---------------------------||
--------------------------*||
--0--0--0--0--0--0--0--0--*||
--0--0--0--0--0--0--0--0---||
---------------------------||


  PM PM PM PM PM PM PM PM  
  E  E  E  E  E  E  E  E   
--------------------------|
--------------------------|
--------------------------|
--0--0--0--0--0--0--0--0--|
--0--0--0--0--0--0--0--0--|
--------------------------|


  PM PM PM PM  PM  PM         
  E  E  E  E   E   E   Q      
-----------------------------|
-----------------------------|
-----------------------------|
--0--0--0--0--12---L---L\----|
--0--0--0--0--12---L---L\----|
-----------------------------|


  PM PM    PM PM    PM PM  
  E  E  E  E  E  E  E  E   
--------------------------|
--------------------------|
--------5--------5--------|
--------5--------5--------|
--0--0-----0--0-----0--0--|
--------------------------|


     PM PM    PM         
  E  E  E  E  E  Q.      
------------------------|
------------------------|
--5--------5-----7------|
--5--------5-----7------|
-----0--0-----0---------|
------------------------|


  PM PM    PM PM    PM PM  
  E  E  E  E  E  E  E  E   
--------------------------|
--------------------------|
--------5--------5--------|
--------5--------5--------|
--0--0-----0--0-----0--0--|
--------------------------|


     PM PM    PM         
  E  E  E  E  E  Q.      
------------------------|
------------------------|
--5--------5-----7------|
--5--------5-----7------|
-----0--0-----0---------|
------------------------|


  PM PM    PM PM    PM PM  
  E  E  E  E  E  E  E  E   
--------------------------|
--------------------------|
--------5--------5--------|
--------5--------5--------|
--0--0-----0--0-----0--0--|
--------------------------|


     PM PM    PM         
  E  E  E  E  E  Q.      
------------------------|
------------------------|
--5--------5-----7------|
--5--------5-----7------|
-----0--0-----0---------|
------------------------|


  PM PM    PM PM    PM PM  
  E  E  E  E  E  E  E  E   
--------------------------|
--------------------------|
--------5--------5--------|
--------5--------5--------|
--0--0-----0--0-----0--0--|
--------------------------|


     PM PM    PM         
  E  E  E  E  E  Q.      
------------------------|
------------------------|
--5--------5-----7------|
--5--------5-----7------|
-----0--0-----0---------|
------------------------|


  PM PM    PM PM    PM PM  
  E  E  E  E  E  E  E  E   
--------------------------|
--------------------------|
--------5--------5--------|
--------5--------5--------|
--0--0-----0--0-----0--0--|
--------------------------|


     PM PM    PM         
  E  E  E  E  E  Q.      
------------------------|
------------------------|
--5--------5-----7------|
--5--------5-----7------|
-----0--0-----0---------|
------------------------|


  PM PM    PM PM    PM PM  
  E  E  E  E  E  E  E  E   
--------------------------|
--------------------------|
--------5--------5--------|
--------5--------5--------|
--0--0-----0--0-----0--0--|
--------------------------|


     PM PM    PM         
  E  E  E  E  E  Q.      
------------------------|
------------------------|
--5--------5-----7------|
--5--------5-----7------|
-----0--0-----0---------|
------------------------|


  PM PM    PM PM    PM PM  
  E  E  E  E  E  E  E  E   
--------------------------|
--------------------------|
--------5--------5--------|
--------5--------5--------|
--0--0-----0--0-----0--0--|
--------------------------|


     PM PM    PM         
  E  E  E  E  E  Q.      
------------------------|
------------------------|
--5--------5-----7------|
--5--------5-----7------|
-----0--0-----0---------|
------------------------|


  PM PM    PM PM    PM PM  
  E  E  E  E  E  E  E  E   
--------------------------|
--------------------------|
--------5--------5--------|
--------5--------5--------|
--0--0-----0--0-----0--0--|
--------------------------|


     PM PM    PM         
  E  E  E  E  E  Q.      
------------------------|
------------------------|
--5--------5-----7------|
--5--------5-----7------|
-----0--0-----0---------|
------------------------|


  PM PM    PM PM    PM PM  
  E  E  E  E  E  E  E  E   
--------------------------|
--------------------------|
--------5--------5--------|
--------5--------5--------|
--0--0-----0--0-----0--0--|
--------------------------|


     PM PM    PM         
  E  E  E  E  E  Q.      
------------------------|
------------------------|
--5--------5-----7------|
--5--------5-----7------|
-----0--0-----0---------|
------------------------|


  PM PM    PM PM    PM PM  
  E  E  E  E  E  E  E  E   
--------------------------|
--------------------------|
--------5--------5--------|
--------5--------5--------|
--0--0-----0--0-----0--0--|
--------------------------|


     PM PM    PM         
  E  E  E  E  E  Q.      
------------------------|
------------------------|
--5--------5-----7------|
--5--------5-----7------|
-----0--0-----0---------|
------------------------|


  PM PM    PM PM    PM PM  
  E  E  E  E  E  E  E  E   
--------------------------|
--------------------------|
--------5--------5--------|
--------5--------5--------|
--0--0-----0--0-----0--0--|
--------------------------|


     PM PM    PM         
  E  E  E  E  E  Q.      
------------------------|
------------------------|
--5--------5-----7------|
--5--------5-----7------|
-----0--0-----0---------|
------------------------|


  PM PM    PM PM    PM PM  
  E  E  E  E  E  E  E  E   
--------------------------|
--------------------------|
--------5--------5--------|
--------5--------5--------|
--0--0-----0--0-----0--0--|
--------------------------|


     PM PM    PM         
  E  E  E  E  E  Q.      
------------------------|
------------------------|
--5--------5-----7------|
--5--------5-----7------|
-----0--0-----0---------|
------------------------|


  PM PM     PM PM     PM PM  
  E  E   E  E  E   E  E  E   
----------------------------|
----------------------------|
----------------------------|
----------------------------|
--------11--------11--------|
--9--9---9--9--9---9--9--9--|


      PM PM              
   E  E  E  Q    Q.      
------------------------|
------------------------|
------------------------|
------------------------|
--11--------9----9------|
---9--9--9--7----7------|


  PM PM     PM PM     PM PM  
  E  E   E  E  E   E  E  E   
----------------------------|
----------------------------|
----------------------------|
----------------------------|
--------11--------11--------|
--9--9---9--9--9---9--9--9--|


      PM PM              
   E  E  E  Q    Q.      
------------------------|
------------------------|
------------------------|
------------------------|
--11--------9----9------|
---9--9--9--7----7------|


  PM PM     PM PM     PM PM  
  E  E   E  E  E   E  E  E   
----------------------------|
----------------------------|
----------------------------|
----------------------------|
--------11--------11--------|
--9--9---9--9--9---9--9--9--|


      PM PM              
   E  E  E  Q    Q.      
------------------------|
------------------------|
------------------------|
------------------------|
--11--------9----9------|
---9--9--9--7----7------|


  PM PM     PM PM     PM PM  
  E  E   E  E  E   E  E  E   
----------------------------|
----------------------------|
----------------------------|
----------------------------|
--------11--------11--------|
--9--9---9--9--9---9--9--9--|


      PM PM              
   E  E  E  Q    Q.      
------------------------|
------------------------|
------------------------|
------------------------|
--11--------9----9------|
---9--9--9--7----7------|


                  PM PM  
  E  E  E  Q.     E  E   
------------------------|
------------------------|
------------------------|
------------------------|
--3--2--0--3------3--3--|
-----------1------1--1--|


  PM PM PM PM PM PM PM PM  
  E  E  E  E  E  E  E  E   
--------------------------|
--------------------------|
--------------------------|
--------------------------|
--3--3--3--3--3--3--3--3--|
--1--1--1--1--1--1--1--1--|


                  PM PM  
  E  E  E  Q.     E  E   
------------------------|
------------------------|
------------------------|
------------------------|
--3--2--0--3------3--3--|
-----------1------1--1--|


  PM PM PM PM PM PM PM PM  
  E  E  E  E  E  E  E  E   
--------------------------|
--------------------------|
--------------------------|
--------------------------|
--3--3--3--3--3--3--3--3--|
--1--1--1--1--1--1--1--1--|


                  PM PM  
  E  E  E  Q.     E  E   
------------------------|
------------------------|
------------------------|
------------------------|
--3--2--0--3------3--3--|
-----------1------1--1--|


  PM PM PM PM PM PM PM PM  
  E  E  E  E  E  E  E  E   
--------------------------|
--------------------------|
--------------------------|
--------------------------|
--3--3--3--3--3--3--3--3--|
--1--1--1--1--1--1--1--1--|


  E  E  E  E  E  E  E  E   
--------------------------|
--------------------------|
--------------------------|
--------------------------|
--3--2--0-----3--2--0-----|
-----------3-----------3--|


                  PM PM  
  E  E  E  Q.     E  E   
------------------------|
------------------------|
------------------------|
------------------------|
--3--2--0--3------3--3--|
-----------1------1--1--|


  PM PM          PM PM    PM PM PM PM  
  E  Q    Q.     E  E     E  E  E  E   
-----------------------|--------------|
-----------------------|--------------|
-----------------------|--------------|
-----------------------|--------------|
--3--3----5------5--5--|--5--5--5--5--|
--1--1----3------3--3--|--3--3--3--3--|


  PM PM    PM PM    PM PM  
  E  E  E  E  E  E  E  E   
--------------------------|
--------------------------|
--------5--------5--------|
--------5--------5--------|
--0--0-----0--0-----0--0--|
--------------------------|


     PM PM    PM         
  E  E  E  E  E  Q.      
------------------------|
------------------------|
--5--------5-----7------|
--5--------5-----7------|
-----0--0-----0---------|
------------------------|


  PM PM    PM PM    PM PM  
  E  E  E  E  E  E  E  E   
--------------------------|
--------------------------|
--------5--------5--------|
--------5--------5--------|
--0--0-----0--0-----0--0--|
--------------------------|


     PM PM    PM         
  E  E  E  E  E  Q.      
------------------------|
------------------------|
--5--------5-----7------|
--5--------5-----7------|
-----0--0-----0---------|
------------------------|


  PM PM    PM PM    PM PM  
  E  E  E  E  E  E  E  E   
--------------------------|
--------------------------|
--------5--------5--------|
--------5--------5--------|
--0--0-----0--0-----0--0--|
--------------------------|


     PM PM    PM         
  E  E  E  E  E  Q.      
------------------------|
------------------------|
--5--------5-----7------|
--5--------5-----7------|
-----0--0-----0---------|
------------------------|


  PM PM    PM PM    PM PM  
  E  E  E  E  E  E  E  E   
--------------------------|
--------------------------|
--------5--------5--------|
--------5--------5--------|
--0--0-----0--0-----0--0--|
--------------------------|


     PM PM    PM         
  E  E  E  E  E  Q.      
------------------------|
------------------------|
--5--------5-----7------|
--5--------5-----7------|
-----0--0-----0---------|
------------------------|


  PM PM    PM PM    PM PM  
  E  E  E  E  E  E  E  E   
--------------------------|
--------------------------|
--------5--------5--------|
--------5--------5--------|
--0--0-----0--0-----0--0--|
--------------------------|


     PM PM    PM         
  E  E  E  E  E  Q.      
------------------------|
------------------------|
--5--------5-----7------|
--5--------5-----7------|
-----0--0-----0---------|
------------------------|


  PM PM    PM PM    PM PM  
  E  E  E  E  E  E  E  E   
--------------------------|
--------------------------|
--------5--------5--------|
--------5--------5--------|
--0--0-----0--0-----0--0--|
--------------------------|


     PM PM    PM         
  E  E  E  E  E  Q.      
------------------------|
------------------------|
--5--------5-----7------|
--5--------5-----7------|
-----0--0-----0---------|
------------------------|


  PM PM    PM PM    PM PM  
  E  E  E  E  E  E  E  E   
--------------------------|
--------------------------|
--------5--------5--------|
--------5--------5--------|
--0--0-----0--0-----0--0--|
--------------------------|


     PM PM    PM         
  E  E  E  E  E  Q.      
------------------------|
------------------------|
--5--------5-----7------|
--5--------5-----7------|
-----0--0-----0---------|
------------------------|


  PM PM    PM PM    PM PM  
  E  E  E  E  E  E  E  E   
--------------------------|
--------------------------|
--------5--------5--------|
--------5--------5--------|
--0--0-----0--0-----0--0--|
--------------------------|


     PM PM    PM         
  E  E  E  E  E  Q.      
------------------------|
------------------------|
--5--------5-----7------|
--5--------5-----7------|
-----0--0-----0---------|
------------------------|


  PM PM     PM PM     PM PM  
  E  E   E  E  E   E  E  E   
----------------------------|
----------------------------|
----------------------------|
----------------------------|
--------10--------10--------|
--9--9---9--9--9---9--9--9--|


      PM PM              
   E  E  E  Q    Q.      
------------------------|
------------------------|
------------------------|
------------------------|
--10--------9----9------|
---9--9--9--7----7------|


  PM PM     PM PM     PM PM  
  E  E   E  E  E   E  E  E   
----------------------------|
----------------------------|
----------------------------|
----------------------------|
--------10--------10--------|
--9--9---9--9--9---9--9--9--|


      PM PM              
   E  E  E  Q    Q.      
------------------------|
------------------------|
------------------------|
------------------------|
--10--------9----9------|
---9--9--9--7----7------|


  PM PM     PM PM     PM PM  
  E  E   E  E  E   E  E  E   
----------------------------|
----------------------------|
----------------------------|
----------------------------|
--------10--------10--------|
--9--9---9--9--9---9--9--9--|


      PM PM              
   E  E  E  Q    Q.      
------------------------|
------------------------|
------------------------|
------------------------|
--10--------9----9------|
---9--9--9--7----7------|


  PM PM     PM PM     PM PM  
  E  E   E  E  E   E  E  E   
----------------------------|
----------------------------|
----------------------------|
----------------------------|
--------10--------10--------|
--9--9---9--9--9---9--9--9--|


      PM PM              
   E  E  E  Q    Q.      
------------------------|
------------------------|
------------------------|
------------------------|
--10--------9----9------|
---9--9--9--7----7------|


                  PM PM  
  E  E  E  Q.     E  E   
------------------------|
------------------------|
------------------------|
------------------------|
--3--2--0--3------3--3--|
-----------1------1--1--|


  PM PM PM PM PM PM PM PM  
  E  E  E  E  E  E  E  E   
--------------------------|
--------------------------|
--------------------------|
--------------------------|
--3--3--3--3--3--3--3--3--|
--1--1--1--1--1--1--1--1--|


                  PM PM  
  E  E  E  Q.     E  E   
------------------------|
------------------------|
------------------------|
------------------------|
--3--2--0--3------3--3--|
-----------1------1--1--|


  PM PM PM PM PM PM PM PM  
  E  E  E  E  E  E  E  E   
--------------------------|
--------------------------|
--------------------------|
--------------------------|
--3--3--3--3--3--3--3--3--|
--1--1--1--1--1--1--1--1--|


                  PM PM  
  E  E  E  Q.     E  E   
------------------------|
------------------------|
------------------------|
------------------------|
--3--2--0--3------3--3--|
-----------1------1--1--|


  PM PM PM PM PM PM PM PM  
  E  E  E  E  E  E  E  E   
--------------------------|
--------------------------|
--------------------------|
--------------------------|
--3--3--3--3--3--3--3--3--|
--1--1--1--1--1--1--1--1--|


  E  E  E  E  E  E  E  E   
--------------------------|
--------------------------|
--------------------------|
--------------------------|
--3--2--0-----3--2--0-----|
-----------3-----------3--|


                  PM PM  
  E  E  E  Q.     E  E   
------------------------|
------------------------|
------------------------|
------------------------|
--3--2--0--3------3--3--|
-----------1------1--1--|


  PM PM          PM PM    PM PM PM PM  
  E  Q    Q.     E  E     E  E  E  E   
-----------------------|--------------|
-----------------------|--------------|
-----------------------|--------------|
-----------------------|--------------|
--3--3----5------5--5--|--5--5--5--5--|
--1--1----3------3--3--|--3--3--3--3--|


  Q    Q    Q    E  E   
-----------------------|
-----------------------|
-----------------------|
--2----4----5----4--2--|
--2----4----5----4--2--|
--0----2----3----2--0--|


  Q    Q    Q    E  E   
-----------------------|
-----------------------|
-----------------------|
--L----4----5----4--2--|
--L----4----5----4--2--|
-------2----3----2--0--|


  Q    Q    Q    Q     
----------------------|
----------------------|
----------------------|
--L----4----5----4----|
--L----4----5----4----|
-------2----3----2----|


  E  Q    H        E   
----------------------|
----------------------|
-----4----3--------L--|
--5--4----3--------L--|
--5--2----1--------L--|
--3-------------------|


  Q    Q    Q    E  E   
-----------------------|
-----------------------|
-----------------------|
--2----4----5----4--2--|
--2----4----5----4--2--|
--0----2----3----2--0--|


  Q    Q    Q    E  E   
-----------------------|
-----------------------|
-----------------------|
--L----4----5----4--2--|
--L----4----5----4--2--|
-------2----3----2--0--|


  Q    Q    Q    Q     
----------------------|
----------------------|
----------------------|
--L----4----5----4----|
--L----4----5----4----|
-------2----3----2----|


  E  Q    H        E   
----------------------|
----------------------|
-----4----3--------L--|
--5--4----3--------L--|
--5--2----1--------L--|
--3-------------------|


  Q    Q    Q    E  E   
-----------------------|
-----------------------|
-----------------------|
--2----4----5----4--2--|
--2----4----5----4--2--|
--0----2----3----2--0--|


  Q    Q    Q    E  E   
-----------------------|
-----------------------|
-----------------------|
--L----4----5----4--2--|
--L----4----5----4--2--|
-------2----3----2--0--|


  Q    Q    Q    Q     
----------------------|
----------------------|
----------------------|
--L----4----5----4----|
--L----4----5----4----|
-------2----3----2----|


  E  Q    H        E   
----------------------|
----------------------|
-----4----3--------L--|
--5--4----3--------L--|
--5--2----1--------L--|
--3-------------------|


  Q    Q    Q    E  E   
-----------------------|
-----------------------|
-----------------------|
--2----4----5----4--2--|
--2----4----5----4--2--|
--0----2----3----2--0--|


  Q    Q    Q    E  E   
-----------------------|
-----------------------|
-----------------------|
--L----4----5----4--2--|
--L----4----5----4--2--|
-------2----3----2--0--|


  Q    Q    Q    Q     
----------------------|
----------------------|
----------------------|
--L----4----5----4----|
--L----4----5----4----|
-------2----3----2----|


  E  Q    H        E   
----------------------|
----------------------|
-----4----3--------L--|
--5--4----3--------L--|
--5--2----1--------L--|
--3-------------------|


  S S S S S S S S S S S S S S S S  
----------------------------------|
----------------------------------|
----------------------------------|
----------------------------------|
--3-3-3-3-3-3-3-3-3-3-3-3-3-3-3-3-|
----------------------------------|


  S S S S S S S S S S S S S S S S  
----------------------------------|
----------------------------------|
----------------------------------|
----------------------------------|
--3-3-3-3-3-3-3-3-3-3-3-3-3-3-3-3-|
----------------------------------|


  S S S S S S S S S S S S S S S S  
----------------------------------|
----------------------------------|
----------------------------------|
----------------------------------|
--3-3-3-3-3-3-3-3-3-3-3-3-3-3-3-3-|
----------------------------------|


  S S S S S S S S S S S S S S S S  
----------------------------------|
----------------------------------|
----------------------------------|
----------------------------------|
--3-3-3-3-3-3-3-3-3-3-3-3-3-3-3-3-|
----------------------------------|


  S S S S S S S S S S S S S S S S  
----------------------------------|
----------------------------------|
----------------------------------|
----------------------------------|
--2-2-2-2-2-2-2-2-2-2-2-2-2-2-2-2-|
----------------------------------|


  S S S S S S S S S S S S S S S S  
----------------------------------|
----------------------------------|
----------------------------------|
----------------------------------|
--2-2-2-2-2-2-2-2-2-2-2-2-2-2-2-2-|
----------------------------------|


  S S S S S S S S S S S S S S S S  
----------------------------------|
----------------------------------|
----------------------------------|
----------------------------------|
--2-2-2-2-2-2-2-2-2-2-2-2-2-2-2-2-|
----------------------------------|


  S S S S S S S S S S S S S S S S  
----------------------------------|
----------------------------------|
----------------------------------|
----------------------------------|
--2-2-2-2-2-2-2-2-2-2-2-2-2-2-2-2-|
----------------------------------|


  S S S S S S S S S S S S S S S S  
----------------------------------|
----------------------------------|
----------------------------------|
----------------------------------|
--5-5-5-5-5-5-5-5-5-5-5-5-5-5-5-5-|
----------------------------------|


  S S S S S S S S S S S S S S S S  
----------------------------------|
----------------------------------|
----------------------------------|
----------------------------------|
--5-5-5-5-5-5-5-5-5-5-5-5-5-5-5-5-|
----------------------------------|


  S S S S S S S S S S S S S S S S  
----------------------------------|
----------------------------------|
----------------------------------|
----------------------------------|
--5-5-5-5-5-5-5-5-5-5-5-5-5-5-5-5-|
----------------------------------|


  S S S S S S S S S S S S S S S S  
----------------------------------|
----------------------------------|
----------------------------------|
----------------------------------|
--5-5-5-5-5-5-5-5-5-5-5-5-5-5-5-5-|
----------------------------------|


  W                   W                 
-------------------|-------------------|
-------------------|-------------------|
--9----------------|--L----------------|
--9----------------|--L----------------|
--7----------------|--L----------------|
-------------------|-------------------|


  W                   W                 
-------------------|-------------------|
-------------------|-------------------|
--L----------------|--L----------------|
--L----------------|--L----------------|
--L----------------|--L----------------|
-------------------|-------------------|


  PM PM    PM PM    PM PM  
  E  E  E  E  E  E  E  E   
--------------------------|
--------------------------|
--------5--------5--------|
--------5--------5--------|
--0--0-----0--0-----0--0--|
--------------------------|


     PM PM    PM         
  E  E  E  E  E  Q.      
------------------------|
------------------------|
--5--------5-----7------|
--5--------5-----7------|
-----0--0-----0---------|
------------------------|


  PM PM    PM PM    PM PM  
  E  E  E  E  E  E  E  E   
--------------------------|
--------------------------|
--------5--------5--------|
--------5--------5--------|
--0--0-----0--0-----0--0--|
--------------------------|


     PM PM    PM         
  E  E  E  E  E  Q.      
------------------------|
------------------------|
--5--------5-----7------|
--5--------5-----7------|
-----0--0-----0---------|
------------------------|


                                     NH    
  E   S S  S  S  S S  S  S  S S  S   E.    
------5-----------------------------------|
--------8p-5h-8p-5------------------------|
--7b---------------7p-5h-7p-5-------------|
------------------------------7p-5--------|
-----------------------------------<>7~---|
------------------------------------------|


  PM PM    PM PM    PM PM  
  E  E  E  E  E  E  E  E   
--------------------------|
--------------------------|
--------5--------5--------|
--------5--------5--------|
--0--0-----0--0-----0--0--|
--------------------------|


     PM PM    PM         
  E  E  E  E  E  Q.      
------------------------|
------------------------|
--5--------5-----7------|
--5--------5-----7------|
-----0--0-----0---------|
------------------------|


  PM PM    PM PM    PM PM  
  E  E  E  E  E  E  E  E   
--------------------------|
--------------------------|
--------5--------5--------|
--------5--------5--------|
--0--0-----0--0-----0--0--|
--------------------------|


     PM PM    PM         
  E  E  E  E  E  Q.      
------------------------|
------------------------|
--5--------5-----7------|
--5--------5-----7------|
-----0--0-----0---------|
------------------------|


  PM PM    PM PM    PM PM  
  E  E  E  E  E  E  E  E   
--------------------------|
--------------------------|
--------5--------5--------|
--------5--------5--------|
--0--0-----0--0-----0--0--|
--------------------------|


     PM PM    PM         
  E  E  E  E  E  Q.      
------------------------|
------------------------|
--5--------5-----7------|
--5--------5-----7------|
-----0--0-----0---------|
------------------------|


  PM PM    PM PM    PM PM  
  E  E  E  E  E  E  E  E   
--------------------------|
--------------------------|
--------5--------5--------|
--------5--------5--------|
--0--0-----0--0-----0--0--|
--------------------------|


     PM PM    PM         
  E  E  E  E  E  Q.      
------------------------|
------------------------|
--5--------5-----7------|
--5--------5-----7------|
-----0--0-----0---------|
------------------------|


  PM PM    PM PM    PM PM  
  E  E  E  E  E  E  E  E   
--------------------------|
--------------------------|
--------5--------5--------|
--------5--------5--------|
--0--0-----0--0-----0--0--|
--------------------------|


     PM PM    PM         
  E  E  E  E  E  Q.      
------------------------|
------------------------|
--5--------5-----7------|
--5--------5-----7------|
-----0--0-----0---------|
------------------------|


  PM PM     PM PM     PM PM  
  E  E   E  E  E   E  E  E   
----------------------------|
----------------------------|
----------------------------|
----------------------------|
--------10--------10--------|
--9--9---9--9--9---9--9--9--|


      PM PM              
   E  E  E  Q    Q.      
------------------------|
------------------------|
------------------------|
------------------------|
--10--------9----9------|
---9--9--9--7----7------|


  PM PM     PM PM     PM PM  
  E  E   E  E  E   E  E  E   
----------------------------|
----------------------------|
----------------------------|
----------------------------|
--------10--------10--------|
--9--9---9--9--9---9--9--9--|


      PM PM              
   E  E  E  Q    Q.      
------------------------|
------------------------|
------------------------|
------------------------|
--10--------9----9------|
---9--9--9--7----7------|


  PM PM     PM PM     PM PM  
  E  E   E  E  E   E  E  E   
----------------------------|
----------------------------|
----------------------------|
----------------------------|
--------10--------10--------|
--9--9---9--9--9---9--9--9--|


      PM PM              
   E  E  E  Q    Q.      
------------------------|
------------------------|
------------------------|
------------------------|
--10--------9----9------|
---9--9--9--7----7------|


  PM PM     PM PM     PM PM  
  E  E   E  E  E   E  E  E   
----------------------------|
----------------------------|
----------------------------|
----------------------------|
--------10--------10--------|
--9--9---9--9--9---9--9--9--|


      PM PM              
   E  E  E  Q    Q.      
------------------------|
------------------------|
------------------------|
------------------------|
--10--------9----9------|
---9--9--9--7----7------|


                  PM PM  
  E  E  E  Q.     E  E   
------------------------|
------------------------|
------------------------|
------------------------|
--3--2--0--3------3--3--|
-----------1------1--1--|


  PM PM PM PM PM PM PM PM  
  E  E  E  E  E  E  E  E   
--------------------------|
--------------------------|
--------------------------|
--------------------------|
--3--3--3--3--3--3--3--3--|
--1--1--1--1--1--1--1--1--|


                  PM PM  
  E  E  E  Q.     E  E   
------------------------|
------------------------|
------------------------|
------------------------|
--3--2--0--3------3--3--|
-----------1------1--1--|


  PM PM PM PM PM PM PM PM  
  E  E  E  E  E  E  E  E   
--------------------------|
--------------------------|
--------------------------|
--------------------------|
--3--3--3--3--3--3--3--3--|
--1--1--1--1--1--1--1--1--|


                  PM PM  
  E  E  E  Q.     E  E   
------------------------|
------------------------|
------------------------|
------------------------|
--3--2--0--3------3--3--|
-----------1------1--1--|


  PM PM PM PM PM PM PM PM  
  E  E  E  E  E  E  E  E   
--------------------------|
--------------------------|
--------------------------|
--------------------------|
--3--3--3--3--3--3--3--3--|
--1--1--1--1--1--1--1--1--|


  E  E  E  E  E  E  E  E   
--------------------------|
--------------------------|
--------------------------|
--------------------------|
--3--2--0-----3--2--0-----|
-----------3-----------3--|


                  PM PM  
  E  E  E  Q.     E  E   
------------------------|
------------------------|
------------------------|
------------------------|
--3--2--0--3------3--3--|
-----------1------1--1--|


  PM PM          PM PM    PM PM PM PM  
  E  Q    Q.     E  E     E  E  E  E   
-----------------------|--------------|
-----------------------|--------------|
-----------------------|--------------|
-----------------------|--------------|
--3--3----5------5--5--|--5--5--5--5--|
--1--1----3------3--3--|--3--3--3--3--|


  S S S S Q    Q    Q      
-------------------------||
-------------------------||
-------------------------||
----------2--------------||
----------2--------------||
--0-0-0-0-0--------------||




Duration Legend
---------------
W - whole
H - half
Q - quarter
E - 8th
S - 16th
T - 32nd
X - 64th
. - note dotted
|-n-|  - n-tuplets


Tablature Legend
----------------
L - tied note
x - dead note
g - grace note
(n) - ghost note
> - accentuded note
NH - natural harmonic
AH - artificial harmonic
TH - tapped harmonic
SH - semi harmonic
PH - pitch harmonic
h - hammer on
p - pull off
b - bend
br - bendRelease
pb - preBend
pbr - preBendRelease
brb - bendReleaseBend
\n/ - tremolo bar dip
\n - tremolo bar dive
-/n - tremolo bar Release up
/n\ - tremolo bar inverted dip
/n - tremolo bar return
-\n - tremolo bar Release down
S - shift slide
s - legato slide
/ -  slide into from below or out of upwards
\ -  slide into from above or out of downwards
~ - vibrato
W - wide vibrato
tr - trill
TP - tremolo picking
T - tapping
S - slap
P - pop
< - fade in
^ - brush up
v - brush down
Tap to rate this tab
# A B C D E F G H I J K L M N O P Q R S T U V W X Y Z