Song name
# A B C D E F G H I J K L M N O P Q R S T U V W X Y Z

Venom - Countess Bathory tab

Venom
Countess Bathory
Black Metal
1982


   Intro/Main Riff

C#|------------------------------------------------------|
G#|------------------------------------------------------|
E |--9-9---------------------------7-7-------------------|
B |--9-9--10-10-10-10-10-10-10-10--7-7--8-8-8-8-8-8-8-8--|
F#|--7-7--10-10-10-10-10-10-10-10--5-5--8-8-8-8-8-8-8-8--|
C#|--------8--8--8--8--8--8--8--8-------6-6-6-6-6-6-6-6--|
       PM  .  .  .  .  .  .  .      PM  . . . . . . .

   Pre-Verse

C#|-------------------------------------------------------------------------------------|
G#|-------------------------------------------------------------------------------------|
E |--2-2-----------------2-2------------------2-2-------------------2-2-2-2-2-2-2-2-2*--|
B |--2-2--------------5--2-2-------------7\5--2-2--------------5----2-2-2-2-2-2-2-2-2*--|
F#|--0-0-0-0-0-0-0-0--3--0-0-0-0-0-0-0-0-5\3--0-0-0-0-0-0-0-0--3----0-0-0-0-0-0-0-0-0*--|
C#|-------------------------------------------------------------------------------------|
      PM . . . . . .      PM . . . . . .       PM . . . . . .    PM . . . . . . . . .

   Verse

C#|-------------------------------------------------------------------------------------|
G#|-------------------------------------------------------------------------------------|
E |--2------------------2-------5----------2------------------2-------5-----------4--4--|
B |--2-------5B5R-------2-------5-5B-------2-------5B5R-------2-------5-5B5R--or--4--4--|
F#|--0-------5B5R-------0-------3-5B-------0-------5B5R-------0-------3-5B5R------2--2--|
C#|----------3B3R-----------------3B---------------3B3R-----------------3B3R------------|

   Main Riff

C#|------------------------------------------------------|
G#|------------------------------------------------------|
E |--9-9---------------------------7-7-------------------|
B |--9-9--10-10-10-10-10-10-10-10--7-7--8-8-8-8-8-8-8-8--|
F#|--7-7--10-10-10-10-10-10-10-10--5-5--8-8-8-8-8-8-8-8--|
C#|--------8--8--8--8--8--8--8--8-------6-6-6-6-6-6-6-6--|
       PM  .  .  .  .  .  .  .      PM  . . . . . . .

   Pre-Verse

C#|-------------------------------------------------------------------------------------|
G#|-------------------------------------------------------------------------------------|
E |--2-2-----------------2-2------------------2-2-------------------2-2-2-2-2-2-2-2-2*--|
B |--2-2--------------5--2-2-------------7\5--2-2--------------5----2-2-2-2-2-2-2-2-2*--|
F#|--0-0-0-0-0-0-0-0--3--0-0-0-0-0-0-0-0-5\3--0-0-0-0-0-0-0-0--3----0-0-0-0-0-0-0-0-0*--|
C#|-------------------------------------------------------------------------------------|
      PM . . . . . .      PM . . . . . .       PM . . . . . .    PM . . . . . . . . .

   Verse

C#|-------------------------------------------------------------------------------------|
G#|-------------------------------------------------------------------------------------|
E |--2------------------2-------5----------2------------------2-------5-----------4--4--|
B |--2-------5B5R-------2-------5-5B-------2-------5B5R-------2-------5-5B5R--or--4--4--|
F#|--0-------5B5R-------0-------3-5B-------0-------5B5R-------0-------3-5B5R------2--2--|
C#|----------3B3R-----------------3B---------------3B3R-----------------3B3R------------|

   Main Riff

C#|------------------------------------------------------|
G#|------------------------------------------------------|
E |--9-9---------------------------7-7-------------------|
B |--9-9--10-10-10-10-10-10-10-10--7-7--8-8-8-8-8-8-8-8--|
F#|--7-7--10-10-10-10-10-10-10-10--5-5--8-8-8-8-8-8-8-8--|
C#|--------8--8--8--8--8--8--8--8-------6-6-6-6-6-6-6-6--|
       PM  .  .  .  .  .  .  .      PM  . . . . . . .

   Bridge

C#|--------------------------------------|-------------------------------|
G#|o-------------------------------------|-------------------------------|
E |--8--8---4------4------4------4-------|--4------4------4------4-------|
B |o-8--8---4------4------4------4-------|--4------4------4------4-------|
F#|--6--6---2--2-2-2--2-2-2--2-2-2--2-2--|--2--2-2-2--2-2-2--2-2-2--2-2--|
C#|--------------------------------------|-------------------------------|

C#|--------------------------------------------------------------------------|
G#|--------------------------------------------------------------------------|
E |--7-----6-----5-----4------4------4-------|--4------4------4------4-------|
B |--7-----6-----5-----4------4------4-------|--4------4------4------4-------|
F#|--5-----4-----3-----2--2-2-2--2-2-2--2-2--|--2--2-2-2--2-2-2--2-2-2--2-2--|
C#|--------------------------------------------------------------------------|


C#|--------------------------------|
G#|--------------------------------|
E |--7-----6------------9-----(9)--|
B |--7-----6-----5B-----9-----(9)--|
F#|--5-----4-----5B-----7-----(7)--|
C#|--------------3B-----0-----(0)--|

   Interlude

C#|----------------------------------------------------|
G#|----------------------------------------------------|
E |----------------------------------------------------|
B |----------------7-----------------------------------|
F#|--7--10--9--10-----10--9--7---10--9--7--9---10--12--|
C#|---------------------------------------------8---9--|


C#|----------------------------------------------------|
G#|----------------------------------------------------|
E |----------------------------------------------------|
B |----------------7-----------------------------------|
F#|--7--10--9--10-----10--9--7---10--9--7--9---10------|
C#|---------------------------------------------8------|
  PM .   .  .   .  .   .  .  .    .  .  .  .

C#|----------------------------------------------------|
G#|----------------------------------------------------|
E |----------------------------------------------------|
B |----------------7-----------------------------------|
F#|--7--10--9--10-----10--9--7---10--9--7--9---10--12--|
C#|---------------------------------------------8---9--|
  PM .   .  .   .  .   .  .  .    .  .  .  .

C#|----------------------------------------------------|
G#|----------------------------------------------------|
E |----------------------------------------------------|
B |----------------7-----------------------------------|
F#|--7--10--9--10-----10--9--7---10--9--7--9---10--12--|
C#|---------------------------------------------8---9--|
  PM .   .  .   .  .   .  .  .    .  .  .  .

   Main Riff

C#|------------------------------------------------------|
G#|------------------------------------------------------|
E |--9-9---------------------------7-7-------------------|
B |--9-9--10-10-10-10-10-10-10-10--7-7--8-8-8-8-8-8-8-8--|
F#|--7-7--10-10-10-10-10-10-10-10--5-5--8-8-8-8-8-8-8-8--|
C#|--------8--8--8--8--8--8--8--8-------6-6-6-6-6-6-6-6--|
       PM  .  .  .  .  .  .  .      PM  . . . . . . .

   Pre-Verse

C#|-------------------------------------------------------------------------------------|
G#|-------------------------------------------------------------------------------------|
E |--2-2-----------------2-2------------------2-2-------------------2-2-2-2-2-2-2-2-2*--|
B |--2-2--------------5--2-2-------------7\5--2-2--------------5----2-2-2-2-2-2-2-2-2*--|
F#|--0-0-0-0-0-0-0-0--3--0-0-0-0-0-0-0-0-5\3--0-0-0-0-0-0-0-0--3----0-0-0-0-0-0-0-0-0*--|
C#|-------------------------------------------------------------------------------------|
      PM . . . . . .      PM . . . . . .       PM . . . . . .    PM . . . . . . . . .

   Verse

C#|-------------------------------------------------------------------------------------|
G#|-------------------------------------------------------------------------------------|
E |--2------------------2-------5----------2------------------2-------5-----------4--4--|
B |--2-------5B5R-------2-------5-5B-------2-------5B5R-------2-------5-5B5R--or--4--4--|
F#|--0-------5B5R-------0-------3-5B-------0-------5B5R-------0-------3-5B5R------2--2--|
C#|----------3B3R-----------------3B---------------3B3R-----------------3B3R------------|

   Main Riff

C#|------------------------------------------------------|
G#|------------------------------------------------------|
E |--9-9---------------------------7-7-------------------|
B |--9-9--10-10-10-10-10-10-10-10--7-7--8-8-8-8-8-8-8-8--|
F#|--7-7--10-10-10-10-10-10-10-10--5-5--8-8-8-8-8-8-8-8--|
C#|--------8--8--8--8--8--8--8--8-------6-6-6-6-6-6-6-6--|

   Bridge

C#|--------------------------------------|-------------------------------|
G#|o-------------------------------------|-------------------------------|
E |--8--8---4------4------4------4-------|--4------4------4------4-------|
B |o-8--8---4------4------4------4-------|--4------4------4------4-------|
F#|--6--6---2--2-2-2--2-2-2--2-2-2--2-2--|--2--2-2-2--2-2-2--2-2-2--2-2--|
C#|--------------------------------------|-------------------------------|

C#|--------------------------------------------------------------------------|
G#|--------------------------------------------------------------------------|
E |--7-----6-----5-----4------4------4-------|--4------4------4------4-------|
B |--7-----6-----5-----4------4------4-------|--4------4------4------4-------|
F#|--5-----4-----3-----2--2-2-2--2-2-2--2-2--|--2--2-2-2--2-2-2--2-2-2--2-2--|
C#|--------------------------------------------------------------------------|

   Outro

C#|-----------------------|
G#|-----------------------|
E |--7-----6-----5-----4--|
B |--7-----6-----5-----4--|
F#|--5-----4-----3-----2--|
C#|-----------------------|


   Keys:                   Tunings:

 *-Whammy Bar               E-C#
 B-Bend                     B-G#
 R-Release after Bend       G-E
 \/-Slide                   D-G
 PM-Palm Mute               A-F#
 ()-Ghost Note              E-C#
Tap to rate this tab
# A B C D E F G H I J K L M N O P Q R S T U V W X Y Z