Guitaretab - guitar tabs
Song name
# A B C D E F G H I J K L M N O P Q R S T U V W X Y Z

Venom - Skeletal Dance tab

1st guitar
---------------------------------|
---------------------------------|
---------------------------------|
-----4-----4---------5-----5-----|    X 8
---2-----2-----2---3-----3-----3-|
-0-----0-----0---0-----0-----0---|
[ Tab from: http://www.guitaretab.com/v/venom/84978.html ]
2nd guitar (after 4 times)
-----------------------------------------------------------------|
-----------------------------------------------------------------|
-----------------------------------------------------------------|
-2/4--5-4-2-4-5-5/7-5-4-5-4-2----------2-4-5-4h5p4-2-4-5---------|
-----------------------------2---2-2---------------------2---2-2-|
-----------------------------------------------------------------|

both
---------------------|
---------------------|
---------------------|
-2--2-22-222-5555555-|   X 4
-2--2-22-222-3333333-|
-0--0-00-000---------|

---------------|
---------------|
---------------|
-2-2-2-2-2-2-2-|
-2-2-2-2-2-2-2-|
-0-0-0-0-0-0-0-|
        
(you have to stroke the strings and after that you have to mute them)
Related for Skeletal Dance tab