Song name
# A B C D E F G H I J K L M N O P Q R S T U V W X Y Z

Ventura Lights - Smokin Cap Gun tab

-------------------------------------------------------------------------------
                          Smokin' Cap Gun - Ventura Lights
-------------------------------------------------------------------------------
Tabbed by: LesPaul925

Tuning: Drop D
e|--------------------------------------------------------------------------|
B|--------------------------------------------------------------------------|
G|-----------------------------------------------------(repeat 2x)----------|
D|-2--x-x-x---2--5---2--x-x-x---2--12---2--x-x-x--2-5---------------7-7-----|
A|-2--x-x-x---2--5---2--x-x-x---2--12---2--x-x-x--2-5---------------7-7-----|
D|-2--x-x-x---2--5---2--x-x-x---2--12---2--x-x-x--2-5---------------7-7-----|

e|--------------------------------------------------------------------------|
B|--------------------------------------------------------------------------|
G|--------------------------------------------------------------------------|
D|-2------------------------x-x-x-2-----------------------------------------|
A|-2------------------------x-x-x-2-----------------------------------------|
D|-2------------------------x-x-x-2-----------------------------------------|

e|--------------------------------------------------------------------------|
B|--------------------------------------------------------------------------|
G|--------------------------------------------------------------------------|
D|-2--x-x-x---2--5---2--x-x-x---2--12---2--x-x-x--2-5---------------7-7-----|
A|-2--x-x-x---2--5---2--x-x-x---2--12---2--x-x-x--2-5---------------7-7-----|
D|-2--x-x-x---2--5---2--x-x-x---2--12---2--x-x-x--2-5---------------7-7-----|


e|--------------------------------------------------------------------------|
B|--------------------------------------------------------------------------|
G|--------------------------------------------------------------------------|
D|-2--x-x-x---2--5---2--x-x-x---2--12---2--x-x-x--2-5---9-7-5---------------|
A|-2--x-x-x---2--5---2--x-x-x---2--12---2--x-x-x--2-5---9-7-5---------------|
D|-2--x-x-x---2--5---2--x-x-x---2--12---2--x-x-x--2-5---9-7-5---------------|

e|--------------------------------------------------------------------------|
B|--------------------------------------------------------------------------|
G|--------------------------------------------------------------------------|
D|-2--x-x-x---2--5---2--x-x-x---2--12---2--x-x-x--2-5---------------7-7-----|
A|-2--x-x-x---2--5---2--x-x-x---2--12---2--x-x-x--2-5---------------7-7-----|
D|-2--x-x-x---2--5---2--x-x-x---2--12---2--x-x-x--2-5---------------7-7-----|

Tap to rate this tab
# A B C D E F G H I J K L M N O P Q R S T U V W X Y Z