Song name
# A B C D E F G H I J K L M N O P Q R S T U V W X Y Z

Venturers - Wipe Out tab

-------------------------------------------------------------------------------
			     WIPE OUT - the ventures
-------------------------------------------------------------------------------
Tabbed by: player 92
Email:dit_vaerste_mareridt@hotmail.com

Tuning: normal ( E,A,D,G,B,e )

Intro

e|----------------------------------------------------------------------------|
B|----------------------------------------------------------------------------|
G|----------------------------------------------------------------------------|
D|----------------------------------------------------------------------------|
A|------1--2-3-3-3-1---------1-2-3-3-3-1------1-2-3-3-3-1-------1-2-3-3-3-----|
E|----3------------------3-3-------------3-3--------------3-3-----------------|


e|---------------------------------------------------------------------------|
B|---------------------------------------------------------------------------|
G|---------------------------------------------------------------------------|
D|---------------1-2-3-3-3-1------1-2-3-3-3-1--------------------------------|
A|-1--------3-----------------33----------------3-------1-2-3-3-3-1----------|
E|------3-------------------------------------------3-----------------3-3----|

e|---------------------------------------------------------------------------|
B|---------------------------------------------------------------------------|
G|---------------------------------------------------------------------------|
D|-------------------0-3-4-5-5-5-3-0------1-2-3-3-3-1------------------------|
A|-1-2-3-3-3-1-----------------------------------------3-----1-2-3-3-3-1-----|
E|--------------33----------------------------------------3--------------3-3-|

e|----------------------------------------------------------------------------|
B|----------------------------------------------------------------------------|
G|----------------------------------------------------------------------------|
D|----------------------------------------------------------------------------|
A|-1-2--3-3-3-3-3-3-3---------------------------------------------------------|
E|------3-3-3-3-3-3-3---------------------------------------------------------|


And then comes the berré chords
e|----8-----------1-----------8-----------3----------1---------8-------------|
B|----8-----------1-----------8-----------3----------1---------8-------------|
G|----9-----------2-----------9-----------4----------2---------9-------------|
D|----10----------3-----------10----------5----------3---------10------------|
A|----1o----------3-----------10----------5----------3---------10------------|
E|----8-----------1-----------8-----------3----------1---------8-------------|

e|----------------------------------------------------------------------------|
B|----------------------------------------------------------------------------|
G|----------------------------------------------------------------------------|
D|----------------------------------------------------------------------------|
A|------1--2-3-3-3-1---------1-2-3-3-3-1------1-2-3-3-3-1-------1-2-3-3-3-----|
E|----3------------------3-3-------------3-3--------------3-3-----------------|


e|---------------------------------------------------------------------------|
B|---------------------------------------------------------------------------|
G|---------------------------------------------------------------------------|
D|---------------1-2-3-3-3-1------1-2-3-3-3-1--------------------------------|
A|-1--------3-----------------33----------------3-------1-2-3-3-3-1----------|
E|------3-------------------------------------------3-----------------3-3----|

e|---------------------------------------------------------------------------|
B|---------------------------------------------------------------------------|
G|---------------------------------------------------------------------------|
D|-------------------0-3-4-5-5-5-3-0------1-2-3-3-3-1------------------------|
A|-1-2-3-3-3-1-----------------------------------------3-----1-2-3-3-3-1-----|
E|--------------33----------------------------------------3--------------3-3-|

e|----------------------------------------------------------------------------|
B|----------------------------------------------------------------------------|
G|----------------------------------------------------------------------------|
D|----------------------------------------------------------------------------|
A|-1-2--3-3-3-3-3-3-3---------------------------------------------------------|
E|------3-3-3-3-3-3-3---------------------------------------------------------|

Just listen to the song ... It's so easy
Tap to rate this tab
# A B C D E F G H I J K L M N O P Q R S T U V W X Y Z