Song name
# A B C D E F G H I J K L M N O P Q R S T U V W X Y Z

Ventures - Gohst Riders In The Sky tab

~~~~=slide
verse 1
----------------------------------------|
----------------------------------------|
----------------------------------------|
----------------------------------------|
------0-0-0--2--3-3-3-------------------|
---0------------------3-3-3-0-3---------|
verse 2
----------------------------------------|
----------------------------------------|
----------------------------------------|
-----------------------2-2-2-0-2--------|
------0-0-0--2--3-3-3-------------------|
---0------------------------------------|

-----------------------------------------------------|
-----------------------------------------------------|
-------2-2-2-----------------------------------------|
-----2-------2-2-2-----------------------------------|
-------------------2-0-----------3-3---3-0-0-0---0---|
-----------------------0-1-1-1-1---------------3-----|
middle
---------------------------------------------|
---------------------------------------------|
---------------------------------------------|
---------------------------------------------|
-0-0-0-0-0-0-0-0-0-0-0-0---------------------|
---------------------------------------------|

repeat verse 1 and 2 faster

----0-0-0-3-3~~~~5-5-5-5~~~~~1-0---------|
-----------------------------------------|
-----------------------------------------|
-----------------------------------------|
-----------------------------------------|
-----------------------------------------|

-----------------------------------------|
-----------------------------------------|
-----------------------------------------|
-----------------------------------------|
----------3-3---3-0-0-0---0--------------|
0-1-1-1-1---------------3----------------|

---------------------------------------------|
---------------------------------------------|
---------------------------------------------|
---------------------------------------------|
-0-0-0-0-0-0-0-0-0-0-0-0---------------------|
---------------------------------------------|
Tap to rate this tab
 
# A B C D E F G H I J K L M N O P Q R S T U V W X Y Z