Guitaretab - guitar tabs
Song name
# A B C D E F G H I J K L M N O P Q R S T U V W X Y Z

Ventures - James Bond Theme tab

James Bond Theme            Tabbed By richie102990
Standard Tuning

Intro
e-------------------|
B-------------------| 
G-------------------|  
D-------------------|> x4
A-------------------|  
E-0--2-3--2--------|

Main Riff
e---------------------------------------|-----------------------|
B---------------------------------------|-----------------------|
G---------------------------------------|-----------------------| 
D---------------------------------------|-----------------------|> x3
A---------------------------------------|-----------------------|
E-0--2--2--2--2--0--0--0--0--3--3--3--2-|2-2------------------|

End of Main Riff
e---------------------------------------|
B---------------------------------------|
G---------------------------------------|
D-1--0----------------------------------|
A-------2-0-2---1--0--------------------|
E---------------------2-0-2-------------|

Interlude

e---------------------|----------------------|
B---------------------|----------------------|
G--------8--7---------|----------------------|
D-----5--------5--8--9|--5--7--5-----2-------|
A--7------------------|-----------2----------|
E---------------------|----------------------|

e---------------------|----------------------|
B---------------------|----------------------|
G--------8--7---------|----------------------|
D-----5--------5--8--9|--5--7--5--2----------|
A--7------------------|--------------2-------|
E---------------------|----------------------|

e---------------------|----------------------|
B---------------------|----------------------|
G--------8--7---------|----------------------|
D-----5--------5--8--9|--5--7--5-----2-------|
A--7------------------|-----------2----------|
E---------------------|----------------------|
[ Tab from: http://www.guitaretab.com/v/ventures/131213.html ]
End of Interlude
e-------------------------------------|
B-------------------------------------|
G--4--4------4--4------4--4-4-4-------|
D--4--4------4--4------4--4-4-4-------|
A--2--2--2---2--2--2---2--2-2-2-------|
E-------------------------------------|
 
Intro Main Riff (second time)
e-------------------|
B-------------------| 
G-------------------|  
D-------------------|> x2
A-------------------|  
E-0--2-3--2--------|

Main Riff (second time)
e---------------------------------------|-----------------------|
B---------------------------------------|-----------------------|
G---------------------------------------|-----------------------| 
D---------------------------------------|-----------------------|> x3
A---------------------------------------|-----------------------|
E-0--2--2--2--2--0--0--0--0--3--3--3--2-|2-2------------------|
  
End of Main Riff (second time)
e---------------------------------------|
B---------------------------------------|
G---------------------------------------|
D-1--0----------------------------------|
A-------2-0-2---1--0--------------------|
E---------------------2-0-2-------------|



Interlude (second time)
e---------------------|----------------------|
B---------------------|----------------------|
G--------8--7---------|----------------------|
D-----5--------5--8--9|--5--7--5-----2-------|
A--7------------------|-----------2----------|
E---------------------|----------------------|

e---------------------|----------------------|
B---------------------|----------------------|
G--------8--7---------|----------------------|
D-----5--------5--8--9|--5--7--5--2----------|
A--7------------------|--------------2-------|
E---------------------|----------------------|

e---------------------|----------------------|
B---------------------|----------------------|
G--------8--7---------|----------------------|
D-----5--------5--8--9|--5--7--5-----2-------|
A--7------------------|-----------2----------|
E---------------------|----------------------|
Related for James Bond Theme tab