Song name
# A B C D E F G H I J K L M N O P Q R S T U V W X Y Z

Ventures - Wipe Out tab

WIPEOUT
As made famous by The Ventures
Tabified by Skipray22
April 10, 2007
Comment:Rawk on! My first tab!

Tuning:Standard
Difficulty:Easy
Distortion:Little-none

e--------------------------------|
b--------------------------------|
g-0-3-4-5-5-5-3-0-0--------------|x4
d--------------------------------|
a--------------------------------|
e--------------------------------|

e--------------------------------|
b---4-5-6-6-6-4------------------|
g-5-------------5-5--------------|x2
d--------------------------------|
a--------------------------------|
e--------------------------------|

e---------------------------------------------------------------------|
b---6-7-8-8-8-6---8-6-6-6-4-------------------------------------------|
g-7-------------7-----------5---0-3-4-5-5-5-3-0-0-5-3-0-0-0-0-0-0-0-0-|
d---------------------------------------------------------------------|
a---------------------------------------------------------------------|
e---------------------------------------------------------------------|

Then there is some chords I didnt list. Probably some C's and F's.
Tap to rate this tab
# A B C D E F G H I J K L M N O P Q R S T U V W X Y Z