Guitaretab - guitar tabs
Song name
# A B C D E F G H I J K L M N O P Q R S T U V W X Y Z

Ventures - Blue Moon tab

E)------------------0--0-----------------------0--0-----|
B)------------------5--5--4--------------------5--5--4--|
G)------------------3--3--4--------------------3--3--4--|
D)------------------4--4--4--------------------4--4--4--|
A)--2-2-2-4--4--4-4-------6----2-2-2-4--4--4-4-------6--|
E)------------------------7--------------------------7--|

E)---------------------------------------------|
B)---------------------------------------------|
G)---------------------------------------------|
D)---------------------------------------------|
A)--------------------------------9-7-6-9-9~~--|
E)-6//7--7-7-7--9-9--5-56-6--9-9--------------|

E)----------0--0-------------0--0------------------------------|
B)----------5--5----4--------5--5----4-------------------------|
G)----------6--6----4--------6--6----4-----------------6-------|
D)--------6-8--8-8--4--------8--8-8--4--------------6--8-------|
A)-9~-7-9----------------6-7---------------6-----------9-9/11--|
E)---------------------9---------------7-9--7-7-4-7------------|
[ Tab from: http://www.guitaretab.com/v/ventures/160924.html ]
E)----------0--0-------------0--0----------------------------|
B)----------5--5----4--------5--5----4-----------------------|
G)----------6--6----4--------6--6----4------------4--4----4--|
D)--------6-8--8-8--4--------8--8-8--4------------4--6----4--|
A)-9~-7-9----------------6-7---------------6------6--7----2--|
E)---------------------9---------------7-9--7-7-4-7-----2-2--|

E)------------------0--0-----------------------0--0-----|
B)------------------5--5--4--------------------5--5--4--|
G)------------------3--3--4--------------------3--3--4--|
D)------------------4--4--4--------------------4--4--4--|
A)--2-2-2-4--4--4-4-------6----2-2-2-4--4--4-4-------6--|
E)------------------------7--------------------------7--|

E)---------------------------------------------|
B)---------------------------------------------|
G)---------------------------------------------|
D)---------------------------------------------|
A)--------------------------------9-7-6-9-9~~--|
E)-6//7--7-7-7--9-9--5-56-6--9-9--------------|

E)------------------------------------------------------|
B)--------------------4---------------------------------|
G)-4-4-3-4-4-3----3-4-3-4-3----3-4-3---3---3------------|
D)-4-4---4-4-4--6-4-6-4-6-4--4-4-6-4-4-4-6-4-6-4-2-4----|
A)-6-6---6-6----7---7---7----6-------6---7---7-6-4-6-6--|
E)-7-7---7-7-----------------7-----------------------7-|

E)--------------------------------|
B)-----------------------------7--|
G)-----------------3-4-6-4-4-4-6--|
D)--------------4-6------4-6-4-8--|
A)-4-6-----4-6-7---------6-7-6-9--|
E)----4-6-7--------------7---7----|

after this the guitar moves up a whole step (2 frets). just play the same stuff 2 frets higher.
Related for Blue Moon tab