Song name
# A B C D E F G H I J K L M N O P Q R S T U V W X Y Z

Ventures - Pipeline tab

The Ventures
Pipeline- Solo

e|----------------------------------------------------------------------|
B|------------------5--------------------------------------------1------|
G|5-------------5----7-5-4------------4---7-5-4-2--------------2---4-2-4|
D|--7-7----7--7------------5-5---5--5-------------3--3----3--3----------|
A|--------7---------------------5------------------------3--------------|
E|----------------------------------------------------------------------|

e|----------------------------------------------------------------------|
B|---------------------------------------5------------------------------|
G|-----------4---7-5-4-5-------------5----7-5-4------------4---7-5-4-2--|
D|5-5---5--5-------------7-7----7--7------------5-5---5--5-------------3|
A|-----5-----------------------7---------------------5------------------|
E|----------------------------------------------------------------------|

e|-----------------------------|
B|-----------1-----------------|
G|---------2---4-2-1-----------|
D|3---3--3---------------------|
A|---3-------------------------|
E|-----------------------------|

And this is The Ventures version
Tap to rate this tab
 
# A B C D E F G H I J K L M N O P Q R S T U V W X Y Z