Song name
# A B C D E F G H I J K L M N O P Q R S T U V W X Y Z

Ventures - Lullaby Of The Leaves tab

LULLABY OF THE LEAVES


The Ventures


   INTRO


   Am              G                 F           E
e|---------------------------------|---------------------------------|
B|---------------------------------|---------------------------------|
G|---------------------------------|---------------------------------|
D|-7---7---7-------5---5---5-------|-3---3---3---2-------2---2---2---|
A|-7---7---7-------5---5---5-------|-3---3---3---2-------2---2---2---|
E|-5---5---5---0---3---3---3---0---|-1---1---1---0-------0---0---0---|




   Am              G                 F           E
e|---------------------------------|---------------------------------|
B|---------------------------------|---------------------------------|
G|---------------------------------|---------------------------------|
D|-7---7---7-------5---5---5-------|-3---3---3---2-------2---2-------|
A|-7---7---7-------5---5---5-------|-3---3---3---2-------2---2-------|
E|-5---5---5---0---3---3---3---0---|-1---1---1---0-------0---0-------|





   VERSE


   Am              G                 F           E
e|---------------------------------|-------------0-------------------|
B|---------------------------------|-------------1---------------0---|
G|---------------------------------|-------------2-------------------|
D|-------------------------0---0---|-1---1---2-----------------------|
A|-0---0---2---2---3---3-----------|---------------------------------|
E|---------------------------------|---------------------------------|




   Am              G                 F
e|---------------------------------|---------------------------------|
B|---------0-------1---------------|---------------------------------|
G|-2---------------2---------------|-0-------------------------------|
D|-----------------------------2---|---------3---------------0-------|
A|---------------------------------|-----------------3---------------|
E|---------------------------------|---------------------------------|




   E
e|---------------------------------|---------------------------------|
B|-------------0-------------------|---------------------------------|
G|-------------1-------------------|---------------------------------|
D|-2---2---2---2-------------------|-2-------2---2-------------------|
A|---------------------------------|---------------------3---2-------|
E|---------------------------------|---------------------------------|




   Am                                    E
e|----0----------------------------|---------------------------------|
B|---1-----------------------------|---------------------------------|
G|--2------------------------------|-2-------------------------------|
D|-2-------------------------------|---------2------0H2P0------------|
A|0--------------------------------|-------------------------3-------|
E|---------------------------------|---------------------------------|





   VERSE


   Am              G                 F           E
e|---------------------------------|-------------0-------------------|
B|---------------------------------|-------------1---------------0---|
G|---------------------------------|-------------2-------------------|
D|-------------------------0---0---|-1---1---2-----------------------|
A|-0---0---2---2---3---3-----------|---------------------------------|
E|---------------------------------|---------------------------------|




   Am              G                 F
e|---------------------------------|---------------------------------|
B|---------0-------1---------------|---------------------------------|
G|-2---------------2---------------|-0-------------------------------|
D|-----------------------------2---|---------3---------------0-------|
A|---------------------------------|-----------------3---------------|
E|---------------------------------|---------------------------------|




   E
e|---------------------------------|---------------------------------|
B|-------------0-------------------|---------------------------------|
G|-------------1-------------------|---------------------------------|
D|-2---2---2---2-------------------|-2-------2---2-------------------|
A|---------------------------------|---------------------3---2-------|
E|---------------------------------|---------------------------------|




   Am
e|----0----------------------------|----0----------------------------|
B|---1-----------------------------|---1-----------------------------|
G|--2------------------------------|--2------------------------------|
D|-2-------------------------------|-2-------------------------------|
A|0--------------------------------|0--------------------------------|
E|---------------------------------|---------------------------------|





   BRIDGE


   F       Ab              F                 Ab              F
e|---------------------------------|---------------------------------|
B|---------------------------------|---------------------------------|
G|---------------------------------|---------------------------------|
D|-3-------6-------6-------3-------|-3-------6-------6-------3-------|
A|-3-------6-------6-------3-------|-3-------6-------6-------3-------|
E|-1-------4-------4-------1-------|-1-------4-------4-------1-------|




   C
e|---------------------------------|---------------------------------|
B|---------------------------------|---------------------------------|
G|-----------------3-------5-------|-------------3-------3---5---3---|
D|---------5-----------------------|---------5-----------------------|
A|-3-------------------------------|---------------------------------|
E|---------------------------------|---------------------------------|




   F       Ab              F                 Ab              F
e|---------------------------------|---------------------------------|
B|---------------------------------|---------------------------------|
G|---------------------------------|---------------------------------|
D|-3-------6-------6-------3-------|-3-------6-------6-------3-------|
A|-3-------6-------6-------3-------|-3-------6-------6-------3-------|
E|-1-------4-------4-------1-------|-1-------4-------4-------1-------|




   C               Em                Dm              G
e|-----8---------------7-----------|-----5---------------3-----------|
B|---------8---------------8-------|---------6---------------3-------|
G|-------------9---------------9---|-------------7---------------4---|
D|-10--------------9---------------|-7---------------5---------------|
A|---------------------------------|---------------------------------|
E|---------------------------------|---------------------------------|





   VERSE


   Am              G                 F           E
e|---------------------------------|-------------0-------------------|
B|---------------------------------|-------------1---------------0---|
G|---------------------------------|-------------2-------------------|
D|-------------------------0---0---|-1---1---2-----------------------|
A|-0---0---2---2---3---3-----------|---------------------------------|
E|---------------------------------|---------------------------------|




   Am              G                 F
e|---------------------------------|---------------------------------|
B|---------0-------1---------------|---------------------------------|
G|-2---------------2---------------|-0-------------------------------|
D|-----------------------------2---|---------3---------------0-------|
A|---------------------------------|-----------------3---------------|
E|---------------------------------|---------------------------------|




   E
e|---------------------------------|---------------------------------|
B|-------------0-------------------|---------------------------------|
G|-------------1-------------------|---------------------------------|
D|-2---2---2---2-------------------|-2-------2---2-------------------|
A|---------------------------------|---------------------3---2-------|
E|---------------------------------|---------------------------------|




   Am
e|----0----------------------------|---5-----------------------------|
B|---1-----------------------------|--5------------------------------|
G|--2------------------------------|-5-------------------------------|
D|-2-------------------------------|7--------------------------------|
A|0--------------------------------|---------------------------------|
E|---------------------------------|---------------------------------|





   INTERLUDE


   Am              G                 F           E
e|---------------------------------|---------------------------------|
B|---------------------------------|---------------------------------|
G|---------------------------------|---------------------------------|
D|-7---7---7-------5---5---5-------|-3---3---3---2-------2---2---2---|
A|-7---7---7-------5---5---5-------|-3---3---3---2-------2---2---2---|
E|-5---5---5---0---3---3---3---0---|-1---1---1---0-------0---0---0---|




   Am              G                 F           E
e|---------------------------------|---------------------------------|
B|---------------------------------|---------------------------------|
G|---------------------------------|---------------------------------|
D|-7---7---7-------5---5---5-------|-3---3---3---2-------2---2-------|
A|-7---7---7-------5---5---5-------|-3---3---3---2-------2---2-------|
E|-5---5---5---0---3---3---3---0---|-1---1---1---0-------0---0-------|





   VERSE


   Am              G                 F           E
e|---------------------------------|-------------0-------------------|
B|---------------------------------|-------------1---------------0---|
G|---------------------------------|-------------2-------------------|
D|-------------------------0---0---|-1---1---2-----------------------|
A|-0---0---2---2---3---3-----------|---------------------------------|
E|---------------------------------|---------------------------------|




   Am              G                 F
e|---------------------------------|---------------------------------|
B|---------0-------1---------------|---------------------------------|
G|-2---------------2---------------|-0-------------------------------|
D|-----------------------------2---|---------3---------------0-------|
A|---------------------------------|-----------------3---------------|
E|---------------------------------|---------------------------------|




   E
e|---------------------------------|---------------------------------|
B|-------------0-------------------|---------------------------------|
G|-------------1-------------------|---------------------------------|
D|-2---2---2---2-------------------|-2-------2---2-------------------|
A|---------------------------------|---------------------3---2-------|
E|---------------------------------|---------------------------------|




   Am                                    E
e|----0----------------------------|---------------------------------|
B|---1-----------------------------|---------------------------------|
G|--2------------------------------|-2-------------------------------|
D|-2-------------------------------|---------2------0H2P0------------|
A|0--------------------------------|-------------------------3-------|
E|---------------------------------|---------------------------------|





   VERSE


   Am              G                 F           E
e|---------------------------------|-------------0-------------------|
B|---------------------------------|-------------1---------------0---|
G|---------------------------------|-------------2-------------------|
D|-------------------------0---0---|-1---1---2-----------------------|
A|-0---0---2---2---3---3-----------|---------------------------------|
E|---------------------------------|---------------------------------|




   Am              G                 F
e|---------------------------------|---------------------------------|
B|---------0-------1---------------|---------------------------------|
G|-2---------------2---------------|-0-------------------------------|
D|-----------------------------2---|---------3---------------0-------|
A|---------------------------------|-----------------3---------------|
E|---------------------------------|---------------------------------|




   E
e|---------------------------------|---------------------------------|
B|-------------0-------------------|---------------------------------|
G|-------------1-------------------|---------------------------------|
D|-2---2---2---2-------------------|---------2---2---2---------------|
A|---------------------------------|---------------------3---2-------|
E|---------------------------------|---------------------------------|




   Am
e|----0----------------------------|----0----------------------------|
B|---1-----------------------------|---1-----------------------------|
G|--2------------------------------|--2------------------------------|
D|-2-------------------------------|-2-------------------------------|
A|0--------------------------------|0--------------------------------|
E|---------------------------------|---------------------------------|





   BRIDGE


   F       Ab              F                 Ab              F
e|---------------------------------|---------------------------------|
B|---------------------------------|---------------------------------|
G|---------------------------------|---------------------------------|
D|-3-------6-------6-------3-------|-3-------6-------6-------3-------|
A|-3-------6-------6-------3-------|-3-------6-------6-------3-------|
E|-1-------4-------4-------1-------|-1-------4-------4-------1-------|




   C
e|-----8-----------8---------------|---------------------------------|
B|---------11B13-------11B13---8---|---------8-----------------------|
G|---------------------------------|-10B12-------10B12---10--8-------|
D|---------------------------------|-----------------------------10--|
A|---------------------------------|---------------------------------|
E|---------------------------------|---------------------------------|




   F       Ab              F                 Ab              F
e|---------------------------------|---------------------------------|
B|---------------------------------|---------------------------------|
G|---------------------------------|---------------------------------|
D|-3-------6-------6-------3-------|-3-------6-------6-------3-------|
A|-3-------6-------6-------3-------|-3-------6-------6-------3-------|
E|-1-------4-------4-------1-------|-1-------4-------4-------1-------|




   C               Em                Dm              G
e|-----8---------------7-----------|-----5---------------3-----------|
B|---------8---------------8-------|---------6---------------3-------|
G|-------------9---------------9---|-------------7---------------4---|
D|-10--------------9---------------|-7---------------5---------------|
A|---------------------------------|---------------------------------|
E|---------------------------------|---------------------------------|





   VERSE


   Am              G                 F           E
e|---------------------------------|-------------0-------------------|
B|---------------------------------|-------------1---------------0---|
G|---------------------------------|-------------2-------------------|
D|-------------------------0---0---|-1---1---2-----------------------|
A|-0---0---2---2---3---3-----------|---------------------------------|
E|---------------------------------|---------------------------------|




   Am              G                 F
e|---------------------------------|---------------------------------|
B|---------0-------1---------------|---------------------------------|
G|-2---------------2---------------|-0-------------------------------|
D|-----------------------------2---|---------3---------------0-------|
A|---------------------------------|-----------------3---------------|
E|---------------------------------|---------------------------------|




   E
e|---------------------------------|---------------------------------|
B|-------------0-------------------|---------------------------------|
G|-------------1-------------------|---------------------------------|
D|-2---2---2---2-------------------|-2-------2---2-------------------|
A|---------------------------------|---------------------3---2-------|
E|---------------------------------|---------------------------------|




   Am
e|----0----------------------------|---------------------------------|
B|---1-----------------------------|---------------------------------|
G|--2------------------------------|---------------------------------|
D|-2-------------------------------|-------------------------0-------|
A|0--------------------------------|-----------------3---------------|
E|---------------------------------|---------------------------------|





   OUTRO


   E
e|---------------------------------|---------------------------------|
B|-------------0-------------------|---------------------------------|
G|-------------1-------------------|---------------------------------|
D|-2---2---2---2-------------------|-2---2---0---0-------------------|
A|---------------------------------|-----------------3---3---2---2---|
E|---------------------------------|---------------------------------|




   Am
e|---------------------5-----------|---------------------------------|
B|--------------------5------------|---------------------------------|
G|-------------------5-------------|---------------------------------|
D|------------------7--------------|---------------------------------|
A|-0---------------7---------------|---------------------------------|
E|---------------------------------|---------------------------------|
Tap to rate this tab
# A B C D E F G H I J K L M N O P Q R S T U V W X Y Z