Song name
# A B C D E F G H I J K L M N O P Q R S T U V W X Y Z

Ventures - Rebel Rouser tab

The Ventures – Rebel Rouser 

Note : Now remember, this tab is adapted to the Ventures version 
of this song,  if you try to play any other version of this song 
with this tab, you will find lots of extra notes.

Standard Tuning.
 
(0:08)
e|---------------------------------------------------------------------|
B|---------------------------------------------------------------------|
G|---------------------------------------------------------------------|
D|---------------------------------------------------------------------|
A|-------------------0—2~------------------2h4-\7-7--------------------|
E|--2b--0----0--2\4---------2b--0--5—5~--5----------7~-----------------|

e|---------------------------------------------------------------------|
B|---------------------------------------------------------------------|
G|---------------------------------------------------------------------|
D|---------------------------------------------------------------------|
A|-------------------0—2~----------0-2-2~------------------------------|
E|--2b--0----0—-2\4---------0—2\4----------2b—0-----0-0-2\4-0-2\4------|
								 PM . . . . . . .
(0:26)
e|---------------------------------------------------------------------|
B|---------------------------------------------------------------------|
G|---------------------------------------------------------------------|
D|--------------------------2--------2--------2------------------------|
A|-------------------0—0h2------0h2------0h2-------------------0-2\4---|
E|--0---0---0-0-2h4------------------------------4-2-0--5-5~-----------|

e|---------------------------------------------------------------------|
B|---------------------------------------------------------------------|
G|---------------------------------------------------------------------|
D|------0-----0-----0-----0--------------------------------------------|
A|--0h2---0h2---0h2---0h2----2p0---------------------------------------|
E|-------------------------------2\4--0---0----------------------------|

(0:36)
e|---------------------------------------------------------------------|
B|---------------------------------------------------------------------|
G|---------------------------------------------------------------------|
D|---------------2--------2--------2-----------4---4-----4-4-----------|
A|--------0-0h2------0h2------0h2------------2----2-----2-2------------|
E|--0—2\4----------------------------\5-4-5------------------2\4--2\4-0|

(0:42)
e|---------------------------------------------------------------------|
B|---------------------------------------------------------------------|
G|---------------------------------------------------------------------|
D|-------------------------------2-------2--------------3--------------|
A|-----------------------0—1\3-3---3—1h3----3p1-0--1--1---3---1—1\3-1--|
E|-0-0-0-0---1—1~--1-1-------------------------------------------------|
PM. . . . .	    PM . .



e|---------------------------------------------------------------------|
B|---------------------------------------------------------------------|
G|---------------------------------------------------------------------|
D|---------------------------------------------------------------------|
A|------3------3------3—3p1--------------------------------------------|
E|--2\5----2\5----2\5--------2\5—1~------------------------------------|

(1:48)
e|--------------------------------------------------------------------------|
B|--------------------------------------------------------------------------|
G|--------------------------------------------------------------------------|
D|--------------------------------------------------------------------------|
A|-----------------------0--2-2~-----------------2h4-\7-7------7-7----------|
E|--2b(4)--0--0---0—2\4-----------2b-0--5-5~---5-----------5\9------9p7-\4-0|


That’s basically it, there are some other riffs, but they are only 
variations of the ones above, so if you listen to the song you should
be able to get them right 

Posted by: Fulvio Prian (flais)
Any doubts e-mail me at usuck@guitar.com 
Enjoy!
Tap to rate this tab
# A B C D E F G H I J K L M N O P Q R S T U V W X Y Z