Song name
# A B C D E F G H I J K L M N O P Q R S T U V W X Y Z

Ventures - The Letter tab

  ----------------------------------------------------------------

   THE VENTURES - THE LETTER (Wayne Carson Thompson) From HAWAII
                  FIVE-O album. Released on May 1969.

  ----------------------------------------------------------------



     INTRO


     X       X       X       X         X       X       X       x
  G|---------------------------------|---------------------------------|
  D|---------------------------------|---------------------------------|
  A|---------------------------------|-------------------------7-------|
  E|---------------------------------|---------------------------------|





     VERSE
     00:03

  G|---------------------------------|---------------------------------|
  D|---------------------------------|-----------------3---3-----------|
  A|-0---------------0---0-------0---|-------------3---------------3---|
  E|-------------0-------------------|-1-------------------------------|





  G|---------------------------------|---------------------------------|
  D|-5-----------0---5---5-----------|-0---------------0---------------|
  A|-----------------------------0---|-------------0-------3---0-------|
  E|---------------------------------|---------------------------------|





  G|---------------------------------|---------------------------------|
  D|---------------------------------|-----------------3---3-----------|
  A|-0---------------0---0-------0---|-------------3-------------------|
  E|-------------0-------------------|-1---------------------------1---|





  G|---------------------------------|---------------------------------|
  D|---------------------------------|---------------------------------|
  A|---------------------------------|-0---------------0---0-----------|
  E|-x---------------x---x-------0---|-----------------------------0---|





     VERSE
     00:17

  G|---------------------------------|---------------------------------|
  D|---------------------------------|-----------------3---3-----------|
  A|-0---------------0---0-----------|-------------3---------------3---|
  E|-------------0-------------------|-1-------------------------------|





  G|---------------------------------|---------------------------------|
  D|-5-----------0---5---5-----------|-0---------------0---------------|
  A|-----------------------------0---|-------------0-------3---0-------|
  E|---------------------------------|----------------------------(0)--|





  G|---------------------------------|---------------------------------|
  D|---------------------------------|-----------------3---3-----------|
  A|-0---------------0---0-------0---|-------------3-------------------|
  E|-------------0-------------------|-1---------------------------1---|





  G|---------------------------------|---------------------------------|
  D|---------------------------------|---------------------------------|
  A|---------------------------------|-0---------------0---0-----------|
  E|-0---------------x---x-------0---|---------------------------------|





  G|---------------------------------|
  D|---------------------------------|
  A|-0---------------0---------------|
  E|---------------------------------|





     BRIDGE
     00:33

  G|---------------------------------|---------------------------------|
  D|-----0---2---5-------------------|---------------------0---2---5---|
  A|-3-------------------0---2---5---|---------0---2---3---------------|
  E|-----------------3---------------|-1---3---------------------------|





  G|---------------------------------|---------------------------------|
  D|---------------------------------|---------------------------------|
  A|-----2---5-------2---5---2---5---|-----2---5---2-------2---5---2---|
  E|-3-----------3-------------------|-3---------------3---------------|





  G|---------------------------------|---------------------------------|
  D|-----0---2---5-------------------|---------------------0---2---5---|
  A|-3-------------------0---2---5---|---------0---2---3---------------|
  E|-----------------3---------------|-1---3---------------------------|





  G|---------------------------------|---------------------------------|
  D|---------------------------------|-2-------------------------------|
  A|-----2---5-------2---5---2---5---|---------------------------------|
  E|-3-----------3-------------------|---------------------------------|





     VERSE
     00:47

  G|---------------------------------|---------------------------------|
  D|---------------------------------|-----------------3---3-----------|
  A|-0---------------0---0-------0---|-------------3---------------3---|
  E|-------------0-------------------|-1-------------------------------|





  G|---------------------------------|---------------------------------|
  D|-5-----------0---5---5-----------|-0---------------0---------------|
  A|-----------------------------0---|-------------0-------3---0-------|
  E|---------------------------------|---------------------------------|





  G|---------------------------------|---------------------------------|
  D|---------------------------------|-----------------3---3-----------|
  A|-0---------------0---0-------0---|-------------3-------------------|
  E|-------------0-------------------|-1---------------------------1---|





  G|---------------------------------|---------------------------------|
  D|---------------------------------|---------------------------------|
  A|---------------------------------|-0---------------0---0-----------|
  E|-0---------------------------0---|-----------------------------0---|





  G|---------------------------------|
  D|---------------------------------|
  A|-0---------------0---0-----------|
  E|---------------------------------|





     BRIDGE
     01:03

  G|---------------------------------|---------------------------------|
  D|-----0---2---5-------------------|---------------------0---2---5---|
  A|-3-------------------0---2---5---|---------0---2---3---------------|
  E|-----------------3---------------|-1---3---------------------------|





  G|---------------------------------|---------------------------------|
  D|---------------------------------|---------------------------------|
  A|-----2---5-------2---5---2---5---|-----2---5-------2---5---2---5---|
  E|-3-----------3-------------------|-3-----------3-------------------|





  G|---------------------------------|---------------------------------|
  D|-----0---2---5-------------------|---------------------0---2---5---|
  A|-3-------------------0---2---5---|---------0---2---3---------------|
  E|-----------------3---------------|-1---3---------------------------|





  G|---------------------------------|---------------------------------|
  D|---------------------------------|-2-------------------------------|
  A|-----2---5-------2---5---2---5---|---------------------------------|
  E|-3-----------3-------------------|---------------------------------|





     VERSE
     01:17

  G|---------------------------------|---------------------------------|
  D|---------------------------------|-----------------3---3-----------|
  A|-0---------------0---0-------0---|-------------3---------------3---|
  E|-------------0-------------------|-1-------------------------------|





  G|---------------------------------|---------------------------------|
  D|-5-----------0---5---5-----------|-0---------------0---------------|
  A|-----------------------------0---|-------------0-------3---0-------|
  E|---------------------------------|-----------------------------0---|





  G|---------------------------------|---------------------------------|
  D|---------------------------------|-----------------3---3-----------|
  A|-0---------------0---0-------0---|-------------3-------------------|
  E|-------------0-------------------|-1---------------------------1---|





  G|---------------------------------|---------------------------------|
  D|---------------------------------|---------------------------------|
  A|---------------------------------|-0-----------0-------0-----------|
  E|-0---------------------------0---|---------------------------------|





  G|---------------------------------|---------------------------------|
  D|---------------------------------|---------------------------------|
  A|---------------------------------|-0-----------0-------0-----------|
  E|-0-----------0---0---0-------0---|---------------------------------|





     OUTRO
     01:35

  G|---------------------------------|---------------------------------|
  D|---------3---6-------------------|-------------------------3---6---|
  A|-4---6-------------------3---6---|---------1---3---4---6-----------|
  E|-----------------4---6-----------|-2---4---------------------------|





  G|---------------------------------|---------------------------------|
  D|---------------------------------|---------------------------------|
  A|-----3---6-------3---6---3---6---|-----3---6-------3---6---3---6---|
  E|-4-----------4-------------------|-4-----------4-------------------| ....
Tap to rate this tab
# A B C D E F G H I J K L M N O P Q R S T U V W X Y Z