Song name
# A B C D E F G H I J K L M N O P Q R S T U V W X Y Z

Ventures - The Wanderer tab

first guitar
------------------------------------------------|
-0--2--3---0h2-3-5--3--2--0---------------------|
--0--0--0---------0--0--0-----------------------|
------------------------------------------------|
------------------------------------------------|
------------------------------------------------|
second guitar
---------2-3-2-0-------------------0-2-3-5-3-0------------------------------|
--3-2-0----------3-2-0-0-----3-2-0-------------0-2-3--------0-2-3-----------|
-------------------------3---------------------------3-4-6--------3-4-6-4---|
----------------------------------------------------------------------------|
----------------------------------------------------------------------------|
----------------------------------------------------------------------------|
Tap to rate this tab
 
# A B C D E F G H I J K L M N O P Q R S T U V W X Y Z